Bass Tabs for Pink Floyd - In The Flesh?

Pink Floyd - In The Flesh?

Intro
G|--------------------------------------------------------------------------------------9--
D|-----------------------------------------------------------------------------------------
A|--------------------------------------------10----5--------------------------------------
E|--0--0--------2--------3--------5--7--8-----------------0--------0--0--------0--0--------

G|-----------7--------------7-----------7-----------7-----------7-----------7--
D|-----------------------------------------------------------------------------
A|--5-----5--------5-----5--------5--5--------5--5--------5--5--------5--5-----
E|-----------------------------------------------------------------------------

Tension & Final
G|--------------------------------------------------------------------------------------------
D|--------------------------------------------------------------------------------------------
A|-----4--2-----------5--4--2--------4--2-----------5--4--2-----4--2-----1--2--5--4--2--3--4--
E|--5--------5--4--2-----------5-----------5--4--2-----------5--------5-----------------------

G|--------------------------------
D|--------------------------------
A|--7--5--4-----------------------
E|-----------0-----0--0-----0--5--



tabs and chords, guitar tabs, music contests, music covers, songsterr, reverbnation, renditions, tabulature, bollywood chords, ultimate guitar, yousician, guitar lessons, torrins, fender, gibson, acoustic guitar, electric guitar, youtube covers, gootar, guitar tuner, A-Z tabs, 911 tabs