Bass Tabs for Pink Floyd - Money

Pink Floyd - Money

Intro
G|-----4-----------------------4--------------------
D|--------4-----------------------4-----------------  4x
A|--2--------2--------2--5--2--------2--------2--5--
E|--------------2--5--------------------2--5--------

Verso
G|-----4-----------------------4-----------------------------------------4--------------------
D|--------4-----------------------4-----------------------------------------4-----------------  2x
A|--2--------2--------2--5--2--------2--------2--5--2--5--------2--5--2--------2--------2--5--
E|--------------2--5--------------------2--5--------------2--5--------------------2--5--------

Refrão
G|-----------------------------------------------
D|--4--4--------------4--3--2--------------------
A|--------4--------4-----------2-----------2--5--
E|-----------2--5-----------------0--3--5--------

Interlude
G|-----4-----------------------4--------------------
D|--------4-----------------------4-----------------
A|--2--------2--------2--5--2--------2--------2--5--
E|--------------2--5--------------------2--5--------

Sax Solo
G|-----4-----------------------4--------------------
D|--------4-----------------------4-----------------  4x
A|--2--------2--------2--5--2--------2--------2--5--
E|--------------2--5--------------------2--5--------

G|-----9-----------------------9--------------------
D|--------9-----------------------9-----------------
A|--7--------7--------7--10-7--------7--------7--10-
E|--------------7--10-------------------7--10-------

G|-----4-----------------------4--------------------
D|--------4-----------------------4-----------------  2x
A|--2--------2--------2--5--2--------2--------2--5--
E|--------------2--5--------------------2--5--------

G|-----4-----------------------4--------------------
D|--------4-----------------------4-----------------
A|--2--------2--------2--5--2--------2--------2--5--
E|--------------2--5--------------------2--5--------

G|-----------------------------------------------------------------------
D|-----------------------------------------------------------------------
A|--2--2--2--2--2--2--2--2--2--2--2--2--2--2--2--2--2--2--2--2--2--2--0--
E|-----------------------------------------------------------------------

Guitar Solo
G|-----------------
D|-----------------  8x
A|--2--5--4--3--2--
E|-----------------

G|--------------
D|--------------   4x
A|--7--6--5--4--x                                       Repeat all 3x
E|--------------

G|-----------------
D|-----------------  4x
A|--2--5--4--3--2--
E|-----------------

G|-----------------------------------4--2-----------------------
D|--------4--3--2--------4--3--2-----------5--4--2--------------
A|--------------------------------------------------5--4--3--2--
E|--2--2-----------2--2-----------------------------------------

G|-----------------
D|-----------------  4x (1st and 2nd time only)
A|--2--5--4--3--2--                  
E|-----------------

Ending Riff 
G|--------------------------------
D|--------------------------------  Till the End...
A|-----5--------5-----5--------5--
E|--7-----7--7-----7-----7--7-----
tabs and chords, guitar tabs, music transcription, music technology, deep learning, music information retrieval, transcribe into tabs & chords, chordify, music renditions, songsterr, reverbnation, tabulature, bollywood chords, ultimate guitar, yousician, guitar lessons, acoustic guitar, electric guitar, guitar tuner, 911 tabs