Bass Tabs for Pink Floyd - Mother

Pink Floyd - Mother

Bass In
G|-----------------------------------------
D|-----------------------------------------
A|--5-----------3-----------------2--------
E|-----------------------3-----------3-----

Pos-Verse
G|--------------------------------------------------------------------
D|--------------------------------------------------0--2--3-----------
A|--------------3--2--3-----3--3-----3--3-----3--3--------------3-----
E|--3--3--3--3--------------------------------------------------------

Pre-Chorus
G|-----------------------------------------------------------------------------------
D|-----2--3--------------2--3--------------------------------------------------------
A|--3-----------3-----3-----------3--------------3----3---3--------------3--2--0-----
E|--------------------------------------1-----1--------------1-----1--3-----------3--

Chorus
G|-----------------------------------
D|-----------------------------------
A|--5-----3-----5-----3-----5-----3--
E|-----------------------------------

Guitar Solo
G|-----------------------------------------------------------------------------
D|-----------------------------------------------------------------------------
A|--------3--3--------3--3--------------2--3--3--5--5--5--3--3--3--------------
E|--3--3--------3--3--------3--3--3--3-----------------------------3--3--3--3--

Verse
G|-----------------------------------------------
D|-----------------------------------------------
A|-----------3-----3-----3-----3-----------5-----
E|--3--3-----------------------------3--------3--

G|-----------------------------------------
D|-----------------------------------------
A|--5-----------3-----------------5--------
E|-----------------------3-----------3-----

2nd Pos-Verse
G|--------------------------------------------------------------------
D|--------------------------------------------------0--2--3-----------
A|--------------3--2--3-----3--3-----3--3-----3--3--------------3-----
E|--3--3--3--3--------------------------------------------------------

2nd Pre-Chorus
G|--------------------------------------------------------------------------------------------
D|-----2--3--------------2--3-----------------------------------------------------------------
A|--3-----------3-----3-----------3--------------3----3---3--------------3--2--0--------------
E|--------------------------------------1-----1--------------1-----1--3-----------3-----3--3--

2nd Chorus
G|--------------------------------------------
D|--------------------------------------------
A|--5-----3-----5-----3-----5-----3-----2-----
E|-----------------------------------------3--
tabs and chords, guitar tabs, music transcription, music technology, deep learning, music information retrieval, transcribe into tabs & chords, chordify, music renditions, songsterr, reverbnation, tabulature, bollywood chords, ultimate guitar, yousician, guitar lessons, acoustic guitar, electric guitar, guitar tuner, 911 tabs