Guitar Tabs for Piece 5 - 20th Century

E|--------------------------------------------------------------------------------------------------
B|-----------5-----------5-----------5-----------5-----------3-----------3-----------3-----------3--
G|-----5-----------5-----------5-----------5-----------4-----------4-----------4-----------4--------
D|--------5-----------5-----------4-----------4-----------4-----------4-----------4-----------4-----
A|--------------------------5-----------------------------------------------------------------------
E|--5-----------------------------------------------3-----------------------3-----------------------

E|--------------------------------------------------------------------------------------------------
B|-----------5-----------5-----------5-----------5-----------3-----------3-----------3-----------3--
G|-----5-----------5-----------5-----------5-----------4-----------4-----------4-----------4--------
D|--------5-----------5-----------4-----------4-----------4-----------4-----------4-----------4-----
A|--------------------------5-----------------------------------------------------------------------
E|--5-----------------------------------------------3-----------------------3-----------------------


E|--------------------------------------------------------------------------------------------------
B|-----------5-----------5-----------5-----------5-----------7-----------7-----------0-----------0--
G|-----5-----------5-----------5-----------5-----------7-----------7-----------1-----------1--------
D|--------5-----------5-----------4-----------4-----------7-----------7-----------2-----------2-----
A|--------------------------5-----------------------------------------------------------------------
E|--5-----------------------------------------------7-----------------------0-----------------------


E|--------------------------------------------------------------------------------------------------
B|-----------5-----------5-----------5-----------5-----------3-----------3-----------3-----------3--
G|-----5-----------5-----------5-----------5-----------4-----------4-----------4-----------4--------
D|--------5-----------5-----------4-----------4-----------4-----------4-----------4-----------4-----
A|--------------------------5-----------------------------------------------------------------------
E|--5-----------------------------------------------3-----------------------3-----------------------


E|--------------------------------------------------------------------------------------------------
B|-----------7-----------7-----------7-----------7-----------5-----------0-----------0--------------
G|-----7-----------7-----------7-----------7-----------6-----------6-----------6-----------6--------
D|--------7-----------7-----------6-----------6-----------6-----------6-----------6-----------------
A|--------------------------7-----------------------------------------------------------------------
E|--7-----------------------------------------------5-----------------------------------------------
tabs and chords, guitar tabs, music contests, music covers, songsterr, reverbnation, renditions, tabulature, bollywood chords, ultimate guitar, yousician, guitar lessons, torrins, fender, gibson, acoustic guitar, electric guitar, youtube covers, gootar, guitar tuner, A-Z tabs, 911 tabs