Guitar Tabs for Piece 2 - Baroque

E|--3--------------------0--1--0--------3--------------------0--------------
B|--------1--1-----1--3--------------3--------1--1-----1--3-----3--1--------
G|-----------------------------------------------------------------------0--
D|-----2--------2-----------------2--------2--------2-----------------2-----
A|--3--------3--------3--------3--------3--------3-----------------3--------
E|--------------------------------------------------------3-----------------

E|--3--------------------0--1--0--------3--------------------0--------------
B|--------1--1-----1--3--------------3--------1--1-----1--3-----3--1--------
G|-----------------------------------------------------------------------0--
D|-----2--------2-----------------2--------2--------2-----------------2-----
A|--3--------3--------3--------3--------3--------3-----------------3--------
E|--------------------------------------------------------3-----------------


E|--5--------5--------3--------3-----------------------------------0--------
B|--------0-----0-----------1-----1-----0--------0--------1-----3-----------
G|-----0-----------0-----0-----------0--------0-----0--------------------0--
D|--3--------3-----------------------------0-----------0-----2--------2-----
A|--------------------3--------3--------------------------3-----3--3--------
E|--------------------------------------3--------3--------------------------

E|--5--------5--------3--------3--------------------------------0-----------
B|--------0-----0-----------1-----1-----0--------0--------1--------1--------
G|-----0-----------0-----0-----------0--------0-----0--------------------0--
D|--3--------3-----------------------------0-----------0-----2--------2-----
A|--------------------3--------3--------------------------3-----3--3--------
E|--------------------------------------3--------3--------------------------

E|--3--------------------0--1--0--------3--------------------3--------------
B|--------1--1-----1--3--------------3--------1--1-----1--0-----0--1--------
G|-----------------------------------------------------------------------0--
D|-----2--------2-----------------2--------2--------2-----------------2-----
A|--3--------3--------3--------3--------3--------3-----------------3--------
E|--------------------------------------------------------3-----------------

E|--3--------------------0--1--0--------3--------------------0--------------
B|--------1--1-----1--3--------------3--------1--1-----1--3-----3--1--------
G|--------------------------------------------------------------------------
D|-----2--------2-----------------2--------2--------2-----------------------
A|--3--------3--------3--------3--------3--------3-----------------3--------
E|--------------------------------------------------------3-----------------
tabs and chords, guitar tabs, music transcription, music technology, deep learning, music information retrieval, transcribe into tabs & chords, chordify, music renditions, songsterr, reverbnation, tabulature, bollywood chords, ultimate guitar, yousician, guitar lessons, acoustic guitar, electric guitar, guitar tuner, 911 tabs