Guitar Tabs for Piece 1 - Renaissance

E|--------------0-----0--1--0-----------------------------------0-----0--1--0-----------0-----------
B|--1-----3--------------------3--1--0--0--------0--1-----3--------------------3--1--0-----------0--
G|--2-----------------------------------1-----1-----2-----------------------------------1-----1-----
D|-----2-----0-----2-----------------------2-----------2-----0-----2-----------------------2--------
A|--0-----2-----3-----3-----------------------------0-----2-----3-----------------------------------
E|--------------------------------------0-----------------------------------------------0-----------

E|--------------0-----0--1--0-----------------------------------0-----0--1--0-----------------------
B|--1-----3--------------------3--1--0--0--------0--1-----3--------------------3--1--0--------------
G|--2-----------------------------------1-----1-----2-----------------------------------2-----------
D|-----2-----0-----2-----------------------2-----------2-----0-----2--------------------------------
A|--0-----2-----3-----3-----------------------------0-----2-----3-----------------------0-----------
E|--------------------------------------0-----------------------------------------------------------

E|--3-----------3--1--0-----------------0-----------------------------------------------0-----------
B|--1--------1-----------3--0--------0-----0--------1--------1--1-----3--1--0--------0-----0--------
G|--------0-----------------1-----1-----------1-----2-----2-----------------1-----1-----------1-----
D|-----2-----------------------2-----------------2-----2-----------2-----------2-----------------2--
A|--3-----------3-----------------------------------0-----------0-----------------------------------
E|--------------------------0-----------------------------------------------0-----------------------

E|--3-----------3--1--0-----------------0-----------------------------------------------------------
B|--1--------1-----------3--0--------0-----0--------1--------1--0--------0--1-----------------------
G|--------0-----------------1-----1-----------1-----2-----2-----1-----1-----2-----------------------
D|-----2-----------------------2-----------------2-----2-----------2-----------2-----2--------------
A|--3-----------3-----------------------------------0-----------------------0-----0-----0-----------
E|--------------------------0-----------------------------------0-----------------------------------


tabs and chords, guitar tabs, music transcription, music technology, deep learning, music information retrieval, transcribe into tabs & chords, chordify, music renditions, songsterr, reverbnation, tabulature, bollywood chords, ultimate guitar, yousician, guitar lessons, acoustic guitar, electric guitar, guitar tuner, 911 tabs