Guitar Tabs for Piece 4 - Romantic

E|--------4--------4--------4--------4--------4--------4--------4--------4--
B|-----0--------0--------0--------0--------0--------0--------0--------0-----
G|--------------------------------------------------------------------------
D|--------------------------------------------------------------------------
A|--------------------------------------------------------------------------
E|--0--------0--------0--------0--------0--------0--------0--------0--------

E|--------2--------2--------2--------2--------2--------2--------2--------2--
B|-----4--------4--------4--------4--------4--------4--------4--------4-----
G|--------------------------------------------------------------------------
D|--------------------------------------------------------------------------
A|--3--------3--------3--------3--------3--------3--------3--------3--------
E|--------------------------------------------------------------------------

E|--------0--------0--------0--------0--------0--------0--------0--------0--
B|-----0--------0--------0--------0--------0--------0--------0--------0-----
G|--------------------------------------------------------------------------
D|--------------------------------------------------------------------------
A|--2--------2--------2--------2--------2--------2--------2--------2--------
E|--------------------------------------------------------------------------

E|--------0--------0--------0--------0--------0--------0--------0--------0--
B|-----2--------2--------2--------2--------2--------2--------2--------2-----
G|--------------------------------------------------------------------------
D|--------------------------------------------------------------------------
A|--1--------1--------1--------1--------1--------1--------1--------1--------
E|--------------------------------------------------------------------------

E|--------2--------2--------2--------2--------2--------2--------2--------2--
B|-----4--------4--------4--------4--------4--------4--------4--------4-----
G|--------------------------------------------------------------------------
D|--------------------------------------------------------------------------
A|--2--------2--------2--------2--------2--------2--------2--------2--------
E|--------------------------------------------------------------------------

E|--------0--------0--------0--------0--------0--------0--------0--------0--
B|-----0--------0--------0--------0--------0--------0--------0--------0-----
G|--------------------------------------------------------------------------
D|--------------------------------------------------------------------------
A|--------------------------------------------------------------------------
E|--0--------0--------0--------0--------0--------0--------0--------0--------

E|--------4--------4--------4--------4--------5--------4--------2--------4--
B|-----0--------0--------0--------0--------0--------0--------0--------0-----
G|--------------------------------------------------------------------------
D|--------------------------------------------------------------------------
A|--------------------------------------------------------------------------
E|--0--------0--------0--------0--------0--------0--------0--------0--------

E|--------4--------4--------4--------4--------4--------4--------4--------4--
B|-----0--------0--------0--------0--------0--------0--------0--------0-----
G|--------------------------------------------------------------------------
D|--------------------------------------------------------------------------
A|--------------------------------------------------------------------------
E|--0--------0--------0--------0--------0--------0--------0--------0--------


E|--------9--------9--------9--------9--------9--------9--------9--------9--
B|-----0--------0--------0--------0--------0--------0--------0--------0-----
G|--------------------------------------------------------------------------
D|--------------------------------------------------------------------------
A|--0--------0--------0--------0--------0--------0--------0--------0--------
E|--------------------------------------------------------------------------


E|--------11-------11-------11-------11-------11-------11-------11-------11-
B|-----0--------0--------0--------0--------0--------0--------0--------0-----
G|--------------------------------------------------------------------------
D|--------------------------------------------------------------------------
A|--0--------0--------0--------0--------0--------0--------0--------0--------
E|--------------------------------------------------------------------------

E|--------12-------12-------12-------12-------12-------12-------------------
B|-----0--------0--------0--------0--------0--------0-----------------------
G|--------------------------------------------------------------------------
D|--------------------------------------------------------------------------
A|--------------------------------------------------------------------------
E|--0--------0--------0--------0--------0--------0--------0-----------------

tabs and chords, guitar tabs, music contests, music covers, songsterr, reverbnation, renditions, tabulature, bollywood chords, ultimate guitar, yousician, guitar lessons, torrins, fender, gibson, acoustic guitar, electric guitar, youtube covers, gootar, guitar tuner, A-Z tabs, 911 tabs