Guitar Tabs for Photograph Ed Sheeran

(/) Slide Up  (\) Slide Down  (h) Hammer On  (p) Pull Off  (b) Bend (r) Release (v) Vibrato (x) Muted

Tabs for Song : 
BPM : 108

Song lyrics here 
E|--0-----0--------------------
B|-----4-----0-----------------
G|--------------2--1-----------
D|--------------------------2--
A|-----------------------------
E|-----------------------------

E|-----------------------------------------------------------------------
B|-----------------------------------------------------------------------
G|--1--1-----1-----1--1-----1-----------------------------------2--1-----
D|--------4--------------4-----2--2-----2--2--4--1-----1--2-----------2--
A|-----------------------------------------------------------------------
E|-----------------------------------------------------------------------

E|-----------------------------------------------------------------------------------------
B|-----------------------------------------------------------------------------------------
G|--1--1-----1--------------------1--1-----1--------------------------------2--1--------1--
D|--------4--------4--2-----2--2--------4-----2--2-----2--2--4--1-----1--2--------4--2-----
A|-----------------------------------------------------------------------------------------
E|-----------------------------------------------------------------------------------------

E|--------------------------------------------------------------------------------------
B|-----------------------------------------------------------------0--------------------
G|--------------------------1-----------------------1--1--------------1--1--------------
D|--2--2--2--2--2--2--2--4--------2--2--2--2--2--4-----------2--4-----------4--4--2-----
A|--------------------------------------------------------------------------------------
E|--------------------------------------------------------------------------------------

E|--------------------------------------------------0--0--2-----4--------4--4--4--5--4--2--0--
B|--0-----------------------0--------------------------------------0--------------------------
G|-----1--1--------------------1--1-----------------------------------------------------------
D|-----------4--4--2-----2-----------4--4--2--1-----------------------------------------------
A|--------------------------------------------------------------------------------------------
E|--------------------------------------------------------------------------------------------

E|--4-----2-----4--4--4--5--4--2--0--4-----2-----4--4--5--4--2--0--0--------0--0-----0--0--
B|--------------------------------------------------------------------------------4--------
G|-----------------------------------------------------------------------------------------
D|-----------------------------------------------------------------------------------------
A|-----------------------------------------------------------------------------------------
E|-----------------------------------------------------------------------------------------

E|--0-----0--------------0-----0-----------------------------------------------------------------------
B|-----4-----0--------------4--------------------------------------------------------------------------
G|--------------2--1--------------1--1-----1--------1--1-----1-----------------------------------2--1--
D|--------------------------------------4-----------------4-----2--2-----2--2--4--1-----1--2-----------
A|-----------------------------------------------------------------------------------------------------
E|-----------------------------------------------------------------------------------------------------

E|-----------------------------------------------------------------------------------------
B|-----------------------------------------------------------2--0--------------------------
G|--------------------1--1-----1--------1--------------------------1-----------------------
D|--2-----2-----2--2--------4--------4-----2-----2--2--2--2-----------4--2-----2--2--4--1--
A|-----------------------------------------------------------------------------------------
E|-----------------------------------------------------------------------------------------

E|-----------------------------------------------------------------------------------
B|-----------------------------------------------------------------------------------
G|-----------------------------2--1--------1--------------------------------------1--
D|--1--2--4--1-----1--2--------------4--2--------2-----1-----2--2--2--2--2--2--4-----
A|-----------------------2--2--------------------------------------------------------
E|-----------------------------------------------------------------------------------

E|--------------------------------------------------------------------------------
B|--------------------------------------0--------------------0--------------------
G|-----------------------1--1--------------1--1-----------------1--1--------------
D|--2--2--2--2--2--2--4-----------2--4-----------4--4--2--------------4--4--2-----
A|--------------------------------------------------------------------------------
E|--------------------------------------------------------------------------------

E|-----------------------------------0--0--2--4--------4--4--4--5--4--2--0-----4-----2--
B|-----0-----------------------------------------0--------------------------------------
G|--------1--1--------------------------------------------------------------------------
D|--2-----------4--4--2-----1-----------------------------------------------------------
A|--------------------------------------------------------------------------------------
E|--------------------------------------------------------------------------------------

E|--4--4--4--5--4--2--0-----4-----2-----4--4--5--4--2--0--0-----0-----
B|--------------------------------------------------------------------
G|--------------------------------------------------------------------
D|--------------------------------------------------------------------
A|--------------------------------------------------------------------
E|--------------------------------------------------------------------

E|--0--0--2--4-----------4--4--4--5--4--2--0-----4-----2-----4--4--4--5--4--2--0-----
B|-----------------0-----------------------------------------------------------------
G|-----------------------------------------------------------------------------------
D|-----------------------------------------------------------------------------------
A|-----------------------------------------------------------------------------------
E|-----------------------------------------------------------------------------------

E|--4-----2-----4--4--4--5--4--2--0-----4-----2-----4--4--5--4--2--0-----0-----2--
B|--------------------------------------------------------------------------------
G|--------------------------------------------------------------------------------
D|--------------------------------------------------------------------------------
A|--------------------------------------------------------------------------------
E|--------------------------------------------------------------------------------

E|--------------------------------------------------------------------------------
B|--------------------------------------------------------------------------------
G|--------1--1--------1--1--1--2--1--------1--------1--1--1--2--1--------1--------
D|--2--2-----------------------------4--2-----4--------------------4--2-----4-----
A|--------------------------------------------------------------------------------
E|--------------------------------------------------------------------------------

E|--------------------------------------------
B|--------------------------------------------
G|--1--1--1--2--1-----------------------------
D|-----------------4--2--2-----2--2--1--2--2--
A|--------------------------------------------
E|--------------------------------------------

Song lyrics here

Use manual mode to free up cursor. Paste any tab in acousterr tab maker and we'll play it !!!
tabs and chords, guitar tabs, music transcription, music technology, deep learning, music information retrieval, transcribe into tabs & chords, chordify, music renditions, songsterr, reverbnation, tabulature, bollywood chords, ultimate guitar, yousician, guitar lessons, acoustic guitar, electric guitar, guitar tuner, 911 tabs