Guitar Tabs for Ed Sheeran - Perfect

(/) Slide Up  (\) Slide Down  (h) Hammer On  (p) Pull Off  (b) Bend (r) Release (v) Vibrato (x) Muted

Tabs & Chords

Check Track 2 for Chord Positions 

    G#                                        Fm    F     Fm                C#          Fm       
E|-----------------------------------------------------------------------------------------------
B|-----------------------------------------------------------------------------------------------
G|-----------------------------------------------------------------------------------------------
D|--------------------------10----8-----------10----8-----10----10----10----------------------8--
A|--------8-----11----11----------------11----------------------------------11----11----11-------
E|--11-------------------------------------------------------------------------------------------

       D#                      G#                            Fm                            C# 
E|--------------------------------------------------------------------------------------------
B|--------------------------------------------------------------------------------------------
G|-----------------------------------------8--------------------------------------------------
D|-----10----8-----10----8-----------10----------10----8-----------------------8-----10----11-
A|-----------------------------11----------------------------11----11----11-------------------
E|--------------------------------------------------------------------------------------------

             Fm                                        D#                                     
E|--------------------------------------------------------------------------------------------
B|--------------------------------------------------------------------------------------------
G|-----------------------------------------------------------8-----8-----8-----10-------------
D|-----11----10----8-----8-----------------8-----10----8-----------------------------10----8--
A|-----------------------------11----11-------------------------------------------------------
E|--------------------------------------------------------------------------------------------

       G#          Cm    G#                Fm          F     Fm          G#    C#             
E|--------------------------------------------------------------------------------------------
B|--------------------------------------------------------------------------------------------
G|--------------------------------------------------------------------------------------------
D|-----10----10----10----10----8-----------10----10----10----10----8-----------11----10-------
A|-----------------------------------11----------------------------------11----------------11-
E|--------------------------------------------------------------------------------------------

       G#                      D#                G#                Cm    G#                Fm 
E|--------------------------------------------------------------------------------------------
B|--------------------------------------------------------------------------------------------
G|--------------------------------------------------------------------------------------------
D|-----------10----11----10----8-----10----8-----------10----10----10----10----8-----------10-
A|-----------------------------------------------11----------------------------------11-------
E|-----11-------------------------------------------------------------------------------------

       F           Fm          G#    C#    G#    C#          D#                G#    Fm    C# 
E|--------------------------------------------------------------------------------------------
B|-----------------------------------------------------------------------------------------9--
G|-----------------------------------------------------------------------8--------------------
D|-----10----10----10----8-----------11----10----------------8-----8-----------10-------------
A|-----------------------------11----------------11----------------------------------11-------
E|-----------------------------------------------------11-------------------------------------

                         G#    D#                      Fm    C#                      G#    D# 
E|--------------------------------------------------------------------------------------------
B|-----8-----------8-----------------------------------------9-----8--------------------------
G|-----------10----------------8-----------------------------------------10----------------8--
D|-----------------------10----------11----10----8-----------------------------------10-------
A|-----------------------------------------------------11----------------------11-------------
E|--------------------------------------------------------------------------------------------

                               Fm                                  C#                G#       
E|--------------------------------------------------------------------------------------------
B|-----------------------------------------------------------9-----8-----------8--------------
G|-----8-----8-----8-----10----------------------------8-----------------10-------------------
D|-----------------------------10----8-----------10----------------------------------10-------
A|-----------------------------------------11----------------------------------------------11-
E|--------------------------------------------------------------------------------------------

                   D#                      Fm          C#                G#          D#       
E|--------------------------------------------------------------------------------------------
B|--------------------------------------------------------------------------------------------
G|-----------------8--------------------------------------------------------------------------
D|-----8-----10----------11----10----11----10----8-----11----10-------8--10----8-----8--------
A|-----------------------------------------------------------------11----------------------11-
E|--------------------------------------------------------------------------------------------

       G#          D#    Fm    D#    C# 
E|-----------8--------------------------
B|-----------------11----9-----8--------
G|-----------------------------------10-
D|--------------------------------------
A|-----11-------------------------------
E|--------------------------------------

Guitar Tabs for Ed Sheeran - Perfect






    G#                                        Fm    F     Fm                C#          Fm       
E|--4-----------------------------------------1-----1-----1-----------------4-----------1--------
B|--4-----------------------------------------1-----1-----1-----------------6-----------1--------
G|--5-----------------------------------------1-----2-----1-----------------6-----------1--------
D|--6-----------------------------------------3-----3-----3-----------------6-----------3--------
A|--6-----------------------------------------3-----3-----3-----------------4-----------3--------
E|--4-----------------------------------------1-----1-----1-----------------------------1--------

       D#                      G#                            Fm                            C# 
E|-----6-----------------------4-----------------------------1-----------------------------4--
B|-----8-----------------------4-----------------------------1-----------------------------6--
G|-----8-----------------------5-----------------------------1-----------------------------6--
D|-----8-----------------------6-----------------------------3-----------------------------6--
A|-----6-----------------------6-----------------------------3-----------------------------4--
E|-----------------------------4-----------------------------1--------------------------------

             Fm                                        D#                                     
E|-----------1-----------------------------------------6--------------------------------------
B|-----------1-----------------------------------------8--------------------------------------
G|-----------1-----------------------------------------8--------------------------------------
D|-----------3-----------------------------------------8--------------------------------------
A|-----------3-----------------------------------------6--------------------------------------
E|-----------1--------------------------------------------------------------------------------

       G#          Cm    G#                Fm          F     Fm          G#    C#             
E|-----4-----------3-----4-----------------1-----------1-----1-----------4-----4--------------
B|-----4-----------4-----4-----------------1-----------1-----1-----------4-----6--------------
G|-----5-----------5-----5-----------------1-----------2-----1-----------5-----6--------------
D|-----6-----------5-----6-----------------3-----------3-----3-----------6-----6--------------
A|-----6-----------3-----6-----------------3-----------3-----3-----------6-----4--------------
E|-----4-----------------4-----------------1-----------1-----1-----------4--------------------

       G#                      D#                G#                Cm    G#                Fm 
E|-----4-----------------------6-----------------4-----------------3-----4-----------------1--
B|-----4-----------------------8-----------------4-----------------4-----4-----------------1--
G|-----5-----------------------8-----------------5-----------------5-----5-----------------1--
D|-----6-----------------------8-----------------6-----------------5-----6-----------------3--
A|-----6-----------------------6-----------------6-----------------3-----6-----------------3--
E|-----4-----------------------------------------4-----------------------4-----------------1--

       F           Fm          G#    C#    G#    C#          D#                G#    Fm    C# 
E|-----1-----------1-----------4-----4-----4-----4-----------6-----------------4-----1-----4--
B|-----1-----------1-----------4-----6-----4-----6-----------8-----------------4-----1-----6--
G|-----2-----------1-----------5-----6-----5-----6-----------8-----------------5-----1-----6--
D|-----3-----------3-----------6-----6-----6-----6-----------8-----------------6-----3-----6--
A|-----3-----------3-----------6-----4-----6-----4-----------6-----------------6-----3-----4--
E|-----1-----------1-----------4-----------4-----------------------------------4-----1--------

                         G#    D#                      Fm    C#                      G#    D# 
E|-----------------------4-----6-----------------------1-----4-----------------------4-----6--
B|-----------------------4-----8-----------------------1-----6-----------------------4-----8--
G|-----------------------5-----8-----------------------1-----6-----------------------5-----8--
D|-----------------------6-----8-----------------------3-----6-----------------------6-----8--
A|-----------------------6-----6-----------------------3-----4-----------------------6-----6--
E|-----------------------4-----------------------------1-----------------------------4--------

                               Fm                                  C#                G#       
E|-----------------------------1-----------------------------------4-----------------4--------
B|-----------------------------1-----------------------------------6-----------------4--------
G|-----------------------------1-----------------------------------6-----------------5--------
D|-----------------------------3-----------------------------------6-----------------6--------
A|-----------------------------3-----------------------------------4-----------------6--------
E|-----------------------------1-----------------------------------------------------4--------

                   D#                      Fm          C#                G#          D#       
E|-----------------6-----------------------1-----------4-----------------4-----------6--------
B|-----------------8-----------------------1-----------6-----------------4-----------8--------
G|-----------------8-----------------------1-----------6-----------------5-----------8--------
D|-----------------8-----------------------3-----------6-----------------6-----------8--------
A|-----------------6-----------------------3-----------4-----------------6-----------6--------
E|-----------------------------------------1-----------------------------4--------------------

       G#          D#    Fm    D#    C# 
E|-----4-----------6-----1-----6-----4--
B|-----4-----------8-----1-----8-----6--
G|-----5-----------8-----1-----8-----6--
D|-----6-----------8-----3-----8-----6--
A|-----6-----------6-----3-----6-----4--
E|-----4-----------------1--------------

tabs and chords, guitar tabs, music transcription, music technology, deep learning, music information retrieval, transcribe into tabs & chords, chordify, music renditions, songsterr, reverbnation, tabulature, bollywood chords, ultimate guitar, yousician, guitar lessons, acoustic guitar, electric guitar, guitar tuner, 911 tabs