Guitar Tabs for Photo

Deewana toone kar diya
Aise tere bin ab reh na sakoon
E|--------------------------------------------------------------------------------------------------------
B|--8--8--6--8--9--8--6--8--9--8--6--8--9--8--6-----------------------------------------------------------
G|-----------------------------------------------8--7---8/10-10-10-10----10-8---8h10p8---7h-8p7---5\3-----
D|--------------------------------------------------------------------------------------------------------
A|--------------------------------------------------------------------------------------------------------
E|--------------------------------------------------------------------------------------------------------

Dil ki baat tujhe aakar main
Keh na sakoon 
E|--------------3-----------3-----------3-----------------------------------
B|--6--6--4--6-----6--4--6-----6--4--6-----6--4--3------3h-4p3--------------
G|--------------------------------------------------5-----------5--5--5-----
D|--------------------------------------------------------------------------
A|--------------------------------------------------------------------------
E|--------------------------------------------------------------------------

Meri good morning tu hai
E|--------------------------------------------------
B|--------------3-----------3---3h-4p3--3-----------
G|--5--5-----5-----5--3--5-----------------5--5-----
D|--------------------------------------------------
A|--------------------------------------------------
E|--------------------------------------------------

Meri good night bhi tu
E|--------------------------------------------------
B|--------------3-----------3---4/6---4h-6p4--3-----
G|--5--5-----5-----5--3--5--------------------------
D|--------------------------------------------------
A|--------------------------------------------------
E|--------------------------------------------------

Yeh duniya wrong lage
E|-----------------------------------------------------
B|--3-----3-----------------3---4/6------3h-4p3--------
G|-----5-----5--3--3-----5-----------------------5-----
D|-----------------------------------------------------
A|-----------------------------------------------------
E|-----------------------------------------------------

Meri liye right bhi tu
E|--------------------------------------------------
B|--------6--3--------------3---4/6---4h-6p4--3-----
G|--5--5--------3--3-----5--------------------------
D|--------------------------------------------------
A|--------------------------------------------------
E|--------------------------------------------------

Tu ban meri raani kude
E|--------------------------------------------------------------
B|--------------8---6/8-----------------------------------------
G|--5--5--7--8--------------8--7---8/10----8--7---5h-7p5--3-----
D|--------------------------------------------------------------
A|--------------------------------------------------------------
E|--------------------------------------------------------------

Deewana nirmaan kude
E|--------------------------------------------------------------
B|--------------8---6/8-----------------------------------------
G|--5--5--7--8--------------8--7---8/10----8--7---5h-7p5--3-----
D|--------------------------------------------------------------
A|--------------------------------------------------------------
E|--------------------------------------------------------------

Tu kar ehsaan kude
E|-----------------------------------------------------
B|-----------------------------6---3h-4p3--------------
G|---3/5--5-----5--5--5--5--5---------------5\3--3-----
D|-----------------------------------------------------
A|-----------------------------------------------------
E|-----------------------------------------------------

Main dekhun teri photo
Sau sau baar kude
E|--------------------------------------------------------------------------------------
B|--------3-----------------------------------3-----------------3---4/6---4h-6p4--3-----
G|--5--5-----5--3--3------5/7-----5-----5--5-----5--3--3-----5--------------------------
D|--------------------------------------------------------------------------------------
A|--------------------------------------------------------------------------------------
E|--------------------------------------------------------------------------------------

Ke uthde tufaan seene vich
E|--------------------------------------------------
B|--3-----3-----------------3---3h-4p3--3-----------
G|-----5-----5--3--3-----5-----------------5--5-----
D|--------------------------------------------------
A|--------------------------------------------------
E|--------------------------------------------------

Sau sau baar kude
E|--------------------------------------------------------
B|--8--8--8--8--6---6h-8p6---6\4---4h-6p4---3h-4p3--------
G|--------------------------------------------------5-----
D|--------------------------------------------------------
A|--------------------------------------------------------
E|--------------------------------------------------------

Tu sapne mein aa hi jaati hai
Tu neend udaa hi jaati hai
E|--------------------------------------------------------------------------------
B|--------------8---6/8--------------------------------8---6/8--------------------
G|--5--5--7--8--------------8--7---8/10----5--5--7--8--------------8--7---8/10----
D|--------------------------------------------------------------------------------
A|--------------------------------------------------------------------------------
E|--------------------------------------------------------------------------------

Tu mil ek vaar kude
E|--------------------------------------------------
B|-----------------------------6---3h-4p3-----------
G|---3/5--5--5-----5--5--5--5---------------5\3--3--
D|--------------------------------------------------
A|--------------------------------------------------
E|--------------------------------------------------
tabs and chords, guitar tabs, music transcription, music technology, deep learning, music information retrieval, transcribe into tabs & chords, chordify, music renditions, songsterr, reverbnation, tabulature, bollywood chords, ultimate guitar, yousician, guitar lessons, acoustic guitar, electric guitar, guitar tuner, 911 tabs