Guitar Tabs for Phir Kabhi - Arijit Singh Tabs

(/) Slide Up  (\) Slide Down  (h) Hammer On  (p) Pull Off  (b) Bend (r) Release (v) Vibrato

Tabs for Song : Phir Kabhi 

Yeh lamha jo thehra hai
E|--------------------------------
B|---4/5--4--------------4--------
G|-----------6-----4--6-----6--4--
D|--------------------------------
A|--------------------------------
E|--------------------------------

Mera hai ye tera hai
E|--------------------------------
B|---4/5--4--------------4--------
G|-----------6-----4--6-----6--4--
D|--------------------------------
A|--------------------------------
E|--------------------------------

Yeh lamha main jee loon zara
E|-----------------------------
B|-----------------------------
G|-----------4--6--4-----------
D|--4--6--7-----------7--6--4--
A|-----------------------------
E|-----------------------------

Tujh mein khoya rahoon main 
E|--------------------------
B|--------------------------
G|-----4--4-----------------
D|-----------4--6--4--------
A|--7-----------------7--6--
E|--------------------------

Mujh mein khoyi rahe tu
E|--------------------------
B|--------------------------
G|-----4--4-----------------
D|-----------4--6--4--------
A|--7-----------------7--6--
E|--------------------------

Khudko dhoondh lenge phir kabhi
E|-----------------------------
B|--------------------5--4-----
G|-----6--6--4--4--6--------4--
D|-----------------------------
A|--7--------------------------
E|-----------------------------

Tujhse milta rahoon main Mujhse milti rahe tu 
Khud se hum milenge phir kabhi (Same As Previous One)

Haa.. phir kabhi
E|--------------------
B|--------------------
G|--------------------
D|------4/6--4--------
A|--7-----------7--7--
E|--------------------
tabs and chords, guitar tabs, music contests, music covers, songsterr, reverbnation, renditions, tabulature, bollywood chords, ultimate guitar, yousician, guitar lessons, torrins, fender, gibson, acoustic guitar, electric guitar, youtube covers, gootar, guitar tuner, A-Z tabs, 911 tabs