Guitar Tabs for Kabhi Yaadon Mein Aaun - Palak Muchhal & Arijit Singh Tabs

(/) Slide Up  (\) Slide Down  (h) Hammer On  (p) Pull Off  (b) Bend (r) Release (v) Vibrato (x) Muted

Tabs for Song : Kabhi Yaadon Mein Aaun

Intro (2x)
E|-----8--5--8-----8--5--8-----8--5-----------------
B|--8-----------8-----------8--------8--6--8--6--5--
G|--------------------------------------------------
D|--------------------------------------------------
A|--------------------------------------------------
E|--------------------------------------------------

Kabhi yaadon mein aaun Kabhi khwabon mein aaun
E|-----------------------------------------------------
B|-----------5-----5--------------------5--------------
G|--5--5--5-----7-----5--7--------7--7-----7--5--5--5--
D|--------------------------7--7-----------------------
A|-----------------------------------------------------
E|-----------------------------------------------------

Kabhi yaadon mein aaun Kabhi khwabon mein aaun
E|-----------------------------------------------------
B|-----------5-----5--------------------5--------------
G|--5--5--5-----7-----5--7--------7--7-----7--5--5--5--
D|--------------------------7--7-----------------------
A|-----------------------------------------------------
E|-----------------------------------------------------

Teri palkon ke saaye Mein aakar jhilmilau
E|-----------------------------------------------------
B|-----------5-----5--------------------5--------------
G|--5--5--5-----7-----5--7--------7--7-----7--5--5--5--
D|--------------------------7--7-----------------------
A|-----------------------------------------------------
E|-----------------------------------------------------

Main wo khushbu nahi jo Hawa mein kho jaun
E|-----------------------------7-----------8--7-----------------------
B|-----------5--8---8/10-10-10----8--8--8--------10-8--8--8--7--10----
G|--5--5--7--------------------------------------------------------9--
D|--------------------------------------------------------------------
A|--------------------------------------------------------------------
E|--------------------------------------------------------------------

Hawa bhi chal rahi hai Magar tu hi nahi hai
E|-----------------------------------------------------
B|-----------5-----5--------------------5--------------
G|--5--5--5-----7-----5--7--------7--7-----7--5--5--5--
D|--------------------------7--7-----------------------
A|-----------------------------------------------------
E|-----------------------------------------------------

Again Repeat Like Part One...
tabs and chords, guitar tabs, music contests, music covers, songsterr, reverbnation, renditions, tabulature, bollywood chords, ultimate guitar, yousician, guitar lessons, torrins, fender, gibson, acoustic guitar, electric guitar, youtube covers, gootar, guitar tuner, A-Z tabs, 911 tabs