Guitar Tabs for Ed Sheeran - Perfect

(/) Slide Up  (\) Slide Down  (h) Hammer On  (p) Pull Off  (b) Bend (r) Release (v) Vibrato

Capo 2nd fret

Tabs for Song : 

I found a love                 for      me                         Darling, just 
E|--------------------------------------------------------------------------
B|--0--0--0--0--0--0--0--0--0--0--0--0--0--0--0--0--0--0--0--0--0--0--0--0--
G|--0--0--0--0--0--0--0--0--0--0--0--0--0--0--0--0--0--0--0--0--0--0--0--0--
D|--0--0--0--0--0--0--0--0--0--0--0--0--2--2--2--2--2--2--2--2--2--2--2--2--
A|--------------------------------------------------------------------------
E|--3-----------------------------------0-----------------------------------

    dive right in              and follow my lead                  Well, I found a
E|--------------------------------------2--2--2--2--2--2--2--2--2--2--2--2--
B|--1--1--1--1--1--1--1--1--1--1--1--1--3--3--3--3--3--3--3--3--3--3--3--3--
G|--0--0--0--0--0--0--0--0--0--0--0--0--2--2--2--2--2--2--2--2--2--2--2--2--
D|--2--2--2--2--2--2--2--2--2--2--2--2--0-----------------------------------
A|--3-----------------------------------------------------------------------
E|--------------------------------------------------------------------------

    girl,                      beauti-  ful and sweet              Oh, I never 
E|--------------------------------------------------------------------------
B|--0--0--0--0--0--0--0--0--0--0--0--0--0--0--0--0--0--0--0--0--0--0--0--0--
G|--0--0--0--0--0--0--0--0--0--0--0--0--0--0--0--0--0--0--0--0--0--0--0--0--
D|--0--0--0--0--0--0--0--0--0--0--0--0--2--2--2--2--2--2--2--2--2--2--2--2--
A|--------------------------------------------------------------------------
E|--3-----------------------------------0-----------------------------------

    knew you were the someone waiting for me            'Cause we were just kids when we 
E|--------------------------------------2--2--2--2--2--2-----------------------
B|--1--1--1--1--1--1--1--1--1--1--1--1--3--3--3--3--3--3-----------------------
G|--0--0--0--0--0--0--0--0--0--0--0--0--2--2--2--2--2--2-----------------------
D|--2--2--2--2--2--2--2--2--2--2--2--2--0--------------------------------------
A|--3--------------------------------------------------------------------------
E|-----------------------------------------------------------------------------

    fell in love               Not knowing what it was             I will not
E|--------------------------------------------------------------------------
B|--0--0--0--0--0--0--0--0--0--0--0--0--0--0--0--0--0--0--0--0--0--0--0--0--
G|--0--0--0--0--0--0--0--0--0--0--0--0--0--0--0--0--0--0--0--0--0--0--0--0--
D|--0--0--0--0--0--0--0--0--0--0--0--0--2--2--2--2--2--2--2--2--2--2--2--2--
A|--------------------------------------------------------------------------
E|--3-----------------------------------0-----------------------------------

    give you up this                    time                       But darling, just
E|--------------------------------------2--2--2--2--2--2--2--2--2--2--2--2--
B|--1--1--1--1--1--1--1--1--1--1--1--1--3--3--3--3--3--3--3--3--3--3--3--3--
G|--0--0--0--0--0--0--0--0--0--0--0--0--2--2--2--2--2--2--2--2--2--2--2--2--
D|--2--2--2--2--2--2--2--2--2--2--2--2--0-----------------------------------
A|--3-----------------------------------------------------------------------
E|--------------------------------------------------------------------------

    kiss me slow               Your heart is all I own             And in your
E|--------------------------------------------------------------------------
B|--0--0--0--0--0--0--0--0--0--0--0--0--0--0--0--0--0--0--0--0--0--0--0--0--
G|--0--0--0--0--0--0--0--0--0--0--0--0--0--0--0--0--0--0--0--0--0--0--0--0--
D|--0--0--0--0--0--0--0--0--0--0--0--0--2--2--2--2--2--2--2--2--2--2--2--2--
A|--------------------------------------------------------------------------
E|--3-----------------------------------0-----------------------------------

    eyes                       you're holding mine        Baby, 
E|--------------------------------------2--2--2--2--2--2--------------------
B|--1--1--1--1--1--1--1--1--1--1--1--1--3--3--3--3--3--3--------------------
G|--0--0--0--0--0--0--0--0--0--0--0--0--2--2--2--2--2--2--------------------
D|--2--2--2--2--2--2--2--2--2--2--2--2--0-----------------------------------
A|--3-----------------------------------------------------------------------
E|--------------------------------------------------------------------------

    I'm               dancing in the    dark           With you between my arms
E|--------------------------------------------------------2--2--2--2--2--2--
B|--0--0--0--0--0--0--1--1--1--1--1--1--0--0--0--0--0--0--3--3--3--3--3--3--
G|--0--0--0--0--0--0--0--0--0--0--0--0--0--0--0--0--0--0--2--2--2--2--2--2--
D|--2--2--2--2--2--2--2--2--2--2--2--2--0--0--0--0--0--0--0-----------------
A|--------------------3-----------------------------------------------------
E|--0-----------------------------------3-----------------------------------

Now supports capo and sound effects for vibrato/pull-off/hammer/bends etc !!! Checkout help section

tabs and chords, guitar tabs, music contests, music covers, songsterr, reverbnation, renditions, tabulature, bollywood chords, ultimate guitar, yousician, guitar lessons, torrins, fender, gibson, acoustic guitar, electric guitar, youtube covers, gootar, guitar tuner, A-Z tabs, 911 tabs