Guitar Tabs for Perfect Ed Sheeran

(/) Slide Up  (\) Slide Down  (h) Hammer On  (p) Pull Off  (b) Bend (r) Release (v) Vibrato (x) Muted

Tabs for Song : 

Song lyrics here
E|-----------------------------------------------------------
B|--------------1--------1-----1--1--1-----------------1-----
G|--------1--1-----3--1-----3-----------1--1--1--1--3-----3--
D|--1--3-----------------------------------------------------
A|-----------------------------------------------------------
E|-----------------------------------------------------------

E|--------------------------------------------------------------------
B|--1--------1--4--1-----------------1--2--2--1-----------------1-----
G|-----3--1-----------3--1--1--1--3--------------3--3--1--1--3-----3--
D|--------------------------------------------------------------------
A|--------------------------------------------------------------------
E|--------------------------------------------------------------------

E|--------------1--------------------------------------------------------------------------------------
B|--4--4--4--4--------1--------1--1--1--1-----------1--1--1--1-----------2--1-----------1--2--1--------
G|-----------------------3-----------------3--1-----------------3--1-----------1-----------------3-----
D|--------------------------------------------------------------------------------1--------------------
A|-----------------------------------------------------------------------------------------------------
E|-----------------------------------------------------------------------------------------------------

E|--------------------------------------------------------------
B|--1--------1--1--1--1--------1--1--1--1--------2--1-----------
G|-----3--1--------------3--1--------------3--1--------1-----3--
D|--------------------------------------------------------1-----
A|--------------------------------------------------------------
E|--------------------------------------------------------------

E|-----------4--3--1--3--------------------------4--3--1-----------------------1-----------------
B|--4--1-----------------1-----1--4--2--1-----------------------1--4--4--4--4--------1-----------
G|--------1--------------------------------3--1-----------1-----------------------------3--1-----
D|-----------------------------------------------------------------------------------------------
A|-----------------------------------------------------------------------------------------------
E|-----------------------------------------------------------------------------------------------

E|--------4--3--1--3--------------------------------------------------------------8--6--4--3--1--3-----
B|--1--4--------------1--------1--4--2--1--2--1-----2--1--------1--------------------------------------
G|-----------------------1--3--------------------3--------1--3-----3--3--1--1--1-----------------------
D|-----------------------------------------------------------------------------------------------------
A|-----------------------------------------------------------------------------------------------------
E|-----------------------------------------------------------------------------------------------------

E|-----------------------------------------------------------------------------------1--------------------
B|--1--4-----1--1--------1--1-----------------1--2--2--1-----------------1-----1--4-----4--1--4--1--------
G|--------1--------1--3--------3--3--3--1--3--------------3--3--1--1--3-----3-----------------------3--1--
D|--------------------------------------------------------------------------------------------------------
A|--------------------------------------------------------------------------------------------------------
E|--------------------------------------------------------------------------------------------------------

E|--------------------------------------------------------------
B|--1--4--4--1--1-----------------1--2--4--1-----------------1--
G|-----------------3--3--1--1--3--------------3--1--1--3--3-----
D|--------------------------------------------------------------
A|--------------------------------------------------------------
E|--------------------------------------------------------------

E|-----------1--------------------------------------------------------------------
B|--4--4--4-----1-----1--1--1--1--------1--1--1--1--------2--1--------1--2--1-----
G|-----------------3--------------3--1--------------3--1--------1--------------3--
D|-----------------------------------------------------------------1--------------
A|--------------------------------------------------------------------------------
E|--------------------------------------------------------------------------------

E|-----------------------------------------------------------------
B|--1--------1--1--1--1--------1--1--1--1--------2--1--------------
G|-----3--1--------------3--1--------------3--1--------1-----3--3--
D|--------------------------------------------------------1--------
A|-----------------------------------------------------------------
E|-----------------------------------------------------------------

E|-----------4--3--1--3--------------------4--3--1--------
B|--4--1-----------------1--4--2--1--------------------1--
G|--------1--------------------------3--1-----------1-----
D|--------------------------------------------------------
A|--------------------------------------------------------
E|--------------------------------------------------------

E|--------------1-----------------4--3--1--3--------------------------------------------------------------------
B|--4--4--4--4-----1--------1--4--------------1--------1--4--2--1--2--1-----2--1--------1-----------------------
G|--------------------3--1-----------------------1--3--------------------3--------1--3-----3--3--1--1--1--x--2--
D|--------------------------------------------------------------------------------------------------------------
A|--------------------------------------------------------------------------------------------------------------
E|--------------------------------------------------------------------------------------------------------------

E|--8-----8--6-----6--4-----4--3-----3--1--3--8--
B|-----4--------4--------1-----------------------
G|--------------------------------3--------------
D|-----------------------------------------------
A|-----------------------------------------------
E|-----------------------------------------------




Song lyrics here
E|--
B|--
G|--
D|--
A|--
E|--

Paste any tab in acousterr's tab maker and we'll play it !!!
Now supports capo and sound effects for vibrato/pull-off/hammer/bends/mutes etc !!! Checkout help section
tabs and chords, guitar tabs, music transcription, music technology, deep learning, music information retrieval, transcribe into tabs & chords, chordify, music renditions, songsterr, reverbnation, tabulature, bollywood chords, ultimate guitar, yousician, guitar lessons, acoustic guitar, electric guitar, guitar tuner, 911 tabs