Guitar Tabs for Perfect - Ed Sheeran - Tab

(/) Slide Up  (\) Slide Down  (h) Hammer On  (p) Pull Off  (b) Bend (r) Release (v) Vibrato (x) Muted

Tabs for Song : 

Song lyrics here
E|-----------------------0--------0-----------0--0--0-----------------------0--------------
B|--------1--1--------------3--1-----------3-----------3--1--1--------1--3-----3-----------
G|---0/1-----------------------------------------------------------------------------------
D|-----------------------------------------------------------------------------------------
A|-----------------------------------------------------------------------------------------
E|-----------------------------------------------------------------------------------------

E|--0--------0--------3-----0-----------------------0--1-----1--0--------------------0-----------
B|-----3--1--------------------3--3--1--1-----1--3--------------------3--1-----1--3-----3--------
G|-----------------------------------------------------------------------------------------------
D|-----------------------------------------------------------------------------------------------
A|-----------------------------------------------------------------------------------------------
E|-----------------------------------------------------------------------------------------------

E|-----3--3--3--3------3/5--3--0-----------------3--0-----3--
B|--------------------------------3-----0--------------3-----
G|-----------------------------------------------------------
D|-----------------------------------------------------------
A|-----------------------------------------------------------
E|-----------------------------------------------------------

E|--------3--------3-----3--0-----3--------3--------3--------3--0--------3--------0--1--0-----
B|-----------------------------3-----------------------------------3-----------------------3--
G|--------------------------------------------------------------------------------------------
D|--------------------------------------------------------------------------------------------
A|--------------------------------------------------------------------------------------------
E|--------------------------------------------------------------------------------------------

E|--------3--0-----3--------3--------3-----0-----3--------3--------3--0-----------3--------0--1--0-----------
B|--------------3-----------------------------3--------------------------3--------------------------3--------
G|-----------------------------------------------------------------------------------------------------------
D|-----------------------------------------------------------------------------------------------------------
A|-----------------------------------------------------------------------------------------------------------
E|-----------------------------------------------------------------------------------------------------------

E|--3--0-----------8-----7--5-----7-----0--------3-----1--0-----------------0--3-----8-----7--5--7-----0--------------0--1--------0--------------------0--------------------------------------
B|--------3--1-----------------------------------------------3--1--0--------------------------------------------1--3--------------------------1--3-----------3--------3--------1--1-----------
G|--------------------------------------------------------------------------------------------------------------------------------------------------------------------------------------------
D|--------------------------------------------------------------------------------------------------------------------------------------------------------------------------------------------
A|--------------------------------------------------------------------------------------------------------------------------------------------------------------------------------------------
E|--------------------------------------------------------------------------------------------------------------------------------------------------------------------------------------------

E|--8--------7--------5--------3--------1--------3--------4--
B|-----------------------------------------------------------
G|--------0--------0--------0--------0--------0--------0-----
D|-----0--------0--------0--------0--------0--------0--------
A|-----------------------------------------------------------
E|-----------------------------------------------------------

E|---
B|--
G|--
D|--
A|--
E|--

E|--
B|--
G|--
D|--
A|--
E|--



Song lyrics here
E|--
B|--
G|--
D|--
A|--
E|--

Paste any tab in acousterr's tab maker and we'll play it !!!
Now supports capo and sound effects for vibrato/pull-off/hammer/bends/mutes etc !!! Checkout help section
tabs and chords, guitar tabs, music transcription, music technology, deep learning, music information retrieval, transcribe into tabs & chords, chordify, music renditions, songsterr, reverbnation, tabulature, bollywood chords, ultimate guitar, yousician, guitar lessons, acoustic guitar, electric guitar, guitar tuner, 911 tabs