Guitar Tabs for Perfect - Ed Sheeran Tabs

(/) Slide Up  (\) Slide Down  (h) Hammer On  (p) Pull Off  (b) Bend (r) Release (v) Vibrato (x) Muted

Perfect - Ed Sheeran 

Capo at 2nd fret

    I found a love                            for me
E|--------------------------------------------------------------------------------
B|--------------------------0-----------------0--------0--------0-----------------
G|--------------0--0-----------0-----------0-----2--0--------------0-----------0--
D|--0------0h2--------------------0-----0-----------------------------2-----2-----
A|--------------------------------------------------------------------------------
E|-----------------3-----------------3-----------------0-----------------0--------

     Darling just dive right in             and follow my lead
E|-----------------------------------------------------------3--------2--------
B|--------0--0--0--------------------------------0--------------3--------------
G|---0h2------------2p0--0--0---------------0h2-----2--------------2-----------
D|------------------------------------------0h------0--------------------------
A|--------------3-----------3---------------3h---------------------------------
E|-----------------------------------------------------------------------------
    Well I found a girl                  beautiful and sweet
E|--------------------------------------------------------------------
B|--0--------0--------0--------0---------0h3--------------------------
G|--0--2--0--------------0---------------0h-------2p0--0--0-----------
D|--------------------------0-----------------------------------------
A|--------------------------------------------------------------------
E|--3--------3---------------------------0h-------0p------------------
    I never knew you were the someone waiting for me
E|-----------------------------------------------------3--------
B|------------0h1--1-----------------------0--------------3-----
G|--0--2--0-----------0---2p0--0-----0--2-----2--------------2--
D|--0--------------------------------0--------0-----------------
A|------------3h---------------------3--------------------------
E|--0-----------------------------------------------------------
     Cause we were just kids when we fell in love, not knowing what it was
E|-----------0-----------------------------------------------------------------------
B|---0h3--3-----------0--------0--------0--------0--------0--------0--------0--------
G|---2h----------4\2--------------------------------2--0-----------------------------
D|---0h------------------------------------------------------------------------------
A|-----------------------------------------------------------------------------------
E|--------------------3-----------------3-----------------0-----------------0--------
    I will not give you up this time
E|--------------------------------------------------------------------------
B|--0--------1--------0--------------------------0--------0--1--0-----------
G|-----2--0--------------------0-----------------------------------2--------
D|--------------------------------------0--------------------------0--------
A|-----------3--------------------------------------------------------------
E|-----------------------------------------------3--------------------------
    But darling just kiss me slow       Your heart is all I own
E|--------------------------------------------------------------------------
B|--0--------0--------0--------0--------0--------0---------0h------0--------
G|-----2--0--------------------------------2--0------------2h4--------------
D|--------------------------------------------------------------------------
A|--------------------------------------------------------------------------
E|-----------3-----------------3-----------------0-----------------0--------
    And in your eyes you're holding mine                         Baby I'm
E|--------------------------------------------------------------------------------------------
B|--0--------1--------0------------------------------------------0h3--1---0h-1p0--------------
G|-----2--0--------------------0------------------0h2------------2h---------------2--0--------
D|--------------------------------------0---------0h-------------0h---------------------------
A|-----------3--------------------------------------------------------------------------------
E|-----------------------------------------------------------------------------------0--------
             Dancing in the dark               With you between my arms
E|-----------3-----2--0-----------------------------------------------------
B|--0--------3--------------3--0-----0---------0h3--1---0h-1p0--------------
G|-----0---------------------------------------2h---------------2--0--------
D|--------2------------------------------------0h---------------------------
A|-----------3--------------------------------------------------------------
E|-----------------------------3-----------------------------------0--------
             Barefoot on the grass             Listening to our favourite song
E|-----------3-----2--0--------------------------------------0--------------
B|--0--------3--------------3--0-----0---------0h3--3--3--3-----0--------0--
G|-----0---------------------------------------2h------------------2--0-----
D|--------2------------------------------------0h---------------------------
A|-----------3--------------------------------------------------------------
E|-----------------------------3--------------------------------0-----------
     When you said you looked a mess        I whispered underneath my breath
E|-----------3-----2--0--------------------------------------------------------
B|--------3--3--------------3--0-----0-----------0--3-----1--0-----1--0--------
G|---2h4------------------------------------0h2--------------------------------
D|--------------------------------------------------0--------------------------
A|-----------3-----------------------------------------------------------------
E|-----------------------------3--------------------------------------0--------
    But you heard it         Darling you look perfect tonight
E|-----------------------------------------------------------------------
B|------------0h1-----0--------------------------------------------------
G|--2------------------------0h2---2h4-----2--------2--------0-----0-----
D|--------------------------------------------------0-----------4--------
A|------------3h------------------------------------0--------------------
E|---------------------------------3h------------------------------3-----
                                                         (D)                  (G)
E|-----------------------------------------------0-----0--2--------3---3/5-----3-----
B|--------0-----------------------------------------3-----3--------------------3-----
G|-----------------2--------0-----------------0-----------2--------------------0-----
D|-----0--------0--------0-----------4-----2--------------0--------------------0-----
A|--------------------------------5-----3--------------------------------------2-----
E|--3--------2--------0--------0-----------------------------------------------3-----


Hope you liked it =)

tabs and chords, guitar tabs, music contests, music covers, songsterr, reverbnation, renditions, tabulature, bollywood chords, ultimate guitar, yousician, guitar lessons, torrins, fender, gibson, acoustic guitar, electric guitar, youtube covers, gootar, guitar tuner, A-Z tabs, 911 tabs