Guitar Tabs for Perfect - Ed Sheeran

E|-----------------------------------------------------------------------------------------------
B|-----------------------------------------------------------------------------------------------
G|--------1--1-----5--3--1--5-----3--5--5--5--1--1-----1--3--5--3-----5--3--1--5--8--5--3--1--1--
D|--1--3-----------------------------------------------------------------------------------------
A|-----------------------------------------------------------------------------------------------
E|-----------------------------------------------------------------------------------------------

E|--------------------------------------------------------------------------------------------------
B|--------------------------------------------------------------------------------------------------
G|--1--3--5--6--6--5--3--3--1-----1--3--5--3--5-----8--8--8--10-5--3--5--5--5-----5--3--1--5--5--5--
D|--------------------------------------------------------------------------------------------------
A|--------------------------------------------------------------------------------------------------
E|--------------------------------------------------------------------------------------------------

E|--------------------------------------------------------------------------------------------------------------
B|--------------------------------------------------------------------------------------------------------------
G|--5--3--1--6--5--1-----5--6--5--3-----5--3--1--5--5--5-----5--3--1--5--5--5-----5--3--1--6--5--1-----3--1--3--
D|--------------------1-----------------------------------------------------------------------------1-----------
A|--------------------------------------------------------------------------------------------------------------
E|--------------------------------------------------------------------------------------------------------------

E|-----------------------------------------------------------------------------------------------------
B|--------------9--8--6--8-----------------------------9--8--6-----------------------------------------
G|--8--5--1-----------------5-----1--8--6--5--3--1--------------1--5--1--8--8--8--8--10-5--3--1--5--8--
D|-----------------------------------------------------------------------------------------------------
A|-----------------------------------------------------------------------------------------------------
E|-----------------------------------------------------------------------------------------------------

E|--------------------------------------------------------------------------------
B|--9--8--6--8--------------------------------------------------------------------
G|--------------5-----1--3--5--8--6--5--6--5-----3--3--6--5--1--3--5--3--3--1--1--
D|--------------------------------------------------------------------------------
A|--------------------------------------------------------------------------------
E|--------------------------------------------------------------------------------
tabs and chords, guitar tabs, music transcription, music technology, deep learning, music information retrieval, transcribe into tabs & chords, chordify, music renditions, songsterr, reverbnation, tabulature, bollywood chords, ultimate guitar, yousician, guitar lessons, acoustic guitar, electric guitar, guitar tuner, 911 tabs