Guitar Tabs for Pensando Bem - 5 A Seco

(/) Slide Up  (\) Slide Down  (h) Hammer On  (p) Pull Off  (b) Bend (r) Release (v) Vibrato

Tabs for Song : 

Song lyrics here
E|--------------------------x-----------------------------------------x--------------------
B|--------------------------x-----------------------------------------x--------------------
G|-----------------0--2-----x-----------4---------------------0--2----x--------------4------
D|------------0h2-----------x------0-----------0--------0h2-----------x--------0-----------
A|--------2-----------------x------------------------2----------------x--------------------
E|-----3--------------3-----x---------3-----------3--------------3----x-----------3--------
Song lyrics here
E|-----------------------------------x---------------------------------------------x------------
B|-----------------------------------x---------------------------------------------x------------
G|------2h4--4---2-2--0--0-----------x-----------0------------0h-4p0--2------p0----x---------0--
D|--------------------------2--------x-----2------------0h2------------------------x---0--------
A|--------------------------3--------x--------3------------------------------------x------------
E|-----------------------------------x-----------------------------------3---------x------3-----

E|--
B|--
G|--
D|--
A|--
E|--

Now supports capo and sound effects for vibrato/pull-off/hammer/bends etc !!! Checkout help section
tabs and chords, guitar tabs, music transcription, music technology, deep learning, music information retrieval, transcribe into tabs & chords, chordify, music renditions, songsterr, reverbnation, tabulature, bollywood chords, ultimate guitar, yousician, guitar lessons, acoustic guitar, electric guitar, guitar tuner, 911 tabs