Guitar Tabs for Pal Pal Dil Ke Pass - Kishore Kumar Tabs

(/) Slide Up  (\) Slide Down  (h) Hammer On  (p) Pull Off  (b) Bend (r) Release (v) Vibrato

Tabs for Song : Pal Pal Dil Ke Pass


pal pal dil ke pass
E|--------------------2--0--0--0-----
B|--0-----2-----3--3-----------------
G|-----------------------------------
D|-----------------------------------
A|-----------------------------------
E|-----------------------------------

tum rehti ho
E|--------------------------
B|--0---0\2--2--3--3--3-----
G|--------------------------
D|--------------------------
A|--------------------------
E|--------------------------

jeevan methi pyaas 
E|--2--3--5--5---5/7--5--5-----
B|-----------------------------
G|-----------------------------
D|-----------------------------
A|-----------------------------
E|-----------------------------

ye kehati ho
E|--0---0/2--2--3--2-----
B|-----------------------
G|-----------------------
D|-----------------------
A|-----------------------
E|-----------------------

mein saans leta hu
E|--2--0--0--2--2--0--0--------------
B|-----------------------3--3--------
G|-----------------------------2-----
D|-----------------------------------
A|-----------------------------------
E|-----------------------------------

teri khusboo aati hai
E|--2--0--0--2--2--0--0--------------
B|-----------------------3--3--------
G|-----------------------------2-----
D|-----------------------------------
A|-----------------------------------
E|-----------------------------------

ek mehka mehka sa
E|--2--0--0--2--2--0--0--------------
B|-----------------------3--3--------
G|-----------------------------2-----
D|-----------------------------------
A|-----------------------------------
E|-----------------------------------

paigaam laati hai
E|--2--0--0--2--2--0--0--------------
B|-----------------------3--3--------
G|-----------------------------2-----
D|-----------------------------------
A|-----------------------------------
E|-----------------------------------

Meri dil ki dhadkan bhi
E|--------5--5--5--5--7--5--3--
B|-----------------------------
G|--2--2-----------------------
D|-----------------------------
A|-----------------------------
E|-----------------------------


Tere geet gaati hai
E|--3--2--2--0--0--3--3--2--2--
B|-----------------------------
G|-----------------------------
D|-----------------------------
A|-----------------------------
E|-----------------------------




tabs and chords, guitar tabs, music transcription, music technology, deep learning, music information retrieval, transcribe into tabs & chords, chordify, music renditions, songsterr, reverbnation, tabulature, bollywood chords, ultimate guitar, yousician, guitar lessons, acoustic guitar, electric guitar, guitar tuner, 911 tabs