Guitar Tabs for Blackmail - Pal Pal Dil Ke Paas Tum Rehti Ho - Kishore Kumar

(/) Slide Up  (\) Slide Down  (h) Hammer On  (p) Pull Off  (b) Bend (r) Release (v) Vibrato

Tabs for Song : Pal Pal dil k pass

Intro Line 1
E|--------------------------------
B|-----------3--------------------
G|--------------5--4--2--5--4-----
D|--------5-----------------------
A|---3/5--------------------------
E|--------------------------------

Intro line 2
E|-----------------------------------
B|-----------------------------------
G|--2--5--4--2-----------------------
D|--------------5--4-----2--4--5-----
A|-----------------------------------
E|-----------------------------------

intro line 3
E|--------------------------------------------------------
B|-----------3--------------------------------------------
G|--------------5--4--2--5--4--2--5--4--2-----------------
D|--------5--------------------------------5--4--2--4-----
A|---3/5--------------------------------------------------
E|--------------------------------------------------------

Intro line 4
E|--------------------------------------------------------------------------------------------------------------
B|--------------------------------3--3--3--3--------------------------------------------------------------------
G|-----------------4--4--4--4--------------------4--4--4--4------2h4--4--4--4------2h4--4--4--4-----------------
D|--5--5--5--5--------------------------------------------------------------------------------------2--4--5-----
A|--------------------------------------------------------------------------------------------------------------
E|--------------------------------------------------------------------------------------------------------------

Intro line 5
E|--------------------7--7--7--7-----10-10-10-10----7--7--7--7------5h7--7--7--7------5h7--7--7--7-----------------
B|---5/8--8--8--8--------------------------------------------------------------------------------------5--7--8-----
G|-----------------------------------------------------------------------------------------------------------------
D|-----------------------------------------------------------------------------------------------------------------
A|-----------------------------------------------------------------------------------------------------------------
E|-----------------------------------------------------------------------------------------------------------------

pal pal dil k pass
E|-----------------------------------------------------------
B|--5--7--8---8/12-10----10h12-10----5--5---5h7---7/8--8-----
G|-----------------------------------------------------------
D|-----------------------------------------------------------
A|-----------------------------------------------------------
E|-----------------------------------------------------------


Jiban mithi pyaas
E|--7--8------8/10----10/12-10----10/12-10----5--5---5h7---7/8--7-----
B|--------------------------------------------------------------------
G|--------------------------------------------------------------------
D|--------------------------------------------------------------------
A|--------------------------------------------------------------------
E|--------------------------------------------------------------------

Filler lead
E|---7h-8p7---5h-7p5-----5-----------
B|--------------------------8--7--5--
G|-----------------------------------
D|-----------------------------------
A|-----------------------------------
E|-----------------------------------






Now supports capo and sound effects for vibrato/pull-off/hammer/bends etc !!! Checkout help section
tabs and chords, guitar tabs, music transcription, music technology, deep learning, music information retrieval, transcribe into tabs & chords, chordify, music renditions, songsterr, reverbnation, tabulature, bollywood chords, ultimate guitar, yousician, guitar lessons, acoustic guitar, electric guitar, guitar tuner, 911 tabs