Guitar Tabs for O Mere Dil Ke Chain - Kishore Kumar Tabs

(/) Slide Up  (\) Slide Down  (h) Hammer On  (p) Pull Off  (b) Bend (r) Release (v) Vibrato

Tabs for Song : O Mere Dil Ke Chain

intro tune
E|--------------------------------
B|--------------0-----------------
G|-----0-----0-----0--2--2--2-----
D|--2-----------------------------
A|--------------------------------
E|--------------------------------

E|--------------------------------
B|--------------0-----------------
G|-----0-----0-----0--2--2--2-----
D|--2-----------------------------
A|--------------------------------
E|--------------------------------

o mere dil ke chain
E|-----------------------------------
B|--0--------------------------------
G|--------0--2-----2--2--0--2--------
D|-----------------------------2-----
A|-----------------------------------
E|-----------------------------------

chain aaye mere dil ko dua kijiya
E|--------------------------------------------
B|--------------------0--0-----0--0-----------
G|-----------0--0--2--------0--------0--2-----
D|--0--2--2-----------------------------------
A|--------------------------------------------
E|--------------------------------------------

apna hi saya dekh ke tum
E|--------------------------------------------
B|--1--1--0--1--------0--------0--0-----------
G|--------------2--2--------2--------2--0-----
D|--------------------------------------------
A|--------------------------------------------
E|--------------------------------------------

jaane jahan sharma gaye
E|-----------------------------------
B|-----------------------------------
G|--2--0--2--0-----------2--2--2-----
D|--------------3--2--3--------------
A|-----------------------------------
E|-----------------------------------

abhi to ye pehli manzil hai
E|-----------------------------------------
B|--1--1--0--1--------0-----0--0-----------
G|--------------2--2-----2--------2--0-----
D|-----------------------------------------
A|-----------------------------------------
E|-----------------------------------------

tum to abhi se ghabra gaye
E|-----------------------------------
B|-----------------------------------
G|--2--0--2--0-----------2--2--2-----
D|--------------3--2--3--------------
A|-----------------------------------
E|-----------------------------------

mera kya hoha
E|-----------0-----------------
B|-----0--1--------0---0h1-----
G|--2-----------2--------------
D|-----------------------------
A|-----------------------------
E|-----------------------------


socho to zara
E|-----------------------------
B|--0--1---1h3--0--0--1--------
G|-----------------------2-----
D|-----------------------------
A|-----------------------------
E|-----------------------------


Add more lines by placing cursor below and adding notes
tabs and chords, guitar tabs, music transcription, music technology, deep learning, music information retrieval, transcribe into tabs & chords, chordify, music renditions, songsterr, reverbnation, tabulature, bollywood chords, ultimate guitar, yousician, guitar lessons, acoustic guitar, electric guitar, guitar tuner, 911 tabs