Guitar Tabs for Pal Pal Dil Ke Paas

Rehna tu pal pal dil ke paas
E|--------------------------------------------------
B|--------5--4--------------------------------------
G|--------------4--6-----6--6--6------6/11-8--------
D|---4/6--------------------------------------------
A|--------------------------------------------------
E|--------------------------------------------------

Judi rahe tujhse har ik saans
E|--------------------------------------------------------------------
B|--------5--4--------------------------------------------------------
G|--------------4--6-----6--6--6------6/11-8------8/11--8h-9p8--6-----
D|---4/6--------------------------------------------------------------
A|--------------------------------------------------------------------
E|--------------------------------------------------------------------

Khud pe pehle na itna yakeen
E|-----------------------------------------------------
B|--------4---4h5---4h-5p4--4--------------------------
G|---4/6-----------------------6--6--4--4--6---6/8-----
D|-----------------------------------------------------
A|-----------------------------------------------------
E|-----------------------------------------------------

Mujhko ho paaya
E|-----------------------------------------
B|---4/5--4---5/7---4h-5p4-----------------
G|--------------------------6--4---4/6-----
D|-----------------------------------------
A|-----------------------------------------
E|-----------------------------------------

Mushkil si ghadiyan aasaan huin
E|-----------------------------------------------------------
B|--------4--4--5--5--4--4-----------------------------------
G|---4/6--------------------6--6--4---4/6---4h-6p4---6/8-----
D|-----------------------------------------------------------
A|-----------------------------------------------------------
E|-----------------------------------------------------------

Ab jo tu aaya
E|-----------------------------------------
B|---4/5--4---5/7---4h-5p4-----------------
G|--------------------------6--4---4/6-----
D|-----------------------------------------
A|-----------------------------------------
E|-----------------------------------------

Ik baat kahun tujhse
E|--------7-----7--7--5---4h-5p4-----------------
B|--------------------------------7--5---5/7-----
G|---4/6-----------------------------------------
D|-----------------------------------------------
A|-----------------------------------------------
E|-----------------------------------------------

Tu paas hai jo mere
E|--------------------------------------------------------
B|---7/10-10----9--7---7\5---5h-7p5--4---4h-5p4---5/7-----
G|--------------------------------------------------------
D|--------------------------------------------------------
A|--------------------------------------------------------
E|--------------------------------------------------------

Seene se tere sarr ko lagaa ke
E|--------------------------------------------------------
B|-----------4--5--7---4h-5p4--4-----------4---4h-5p4-----
G|---4/6--6--------------------------4--6-----------------
D|--------------------------------------------------------
A|--------------------------------------------------------
E|--------------------------------------------------------

Sunti main rahun naam apna
E|-----------------------------------------------------------------------------------------
B|--------4--5--5--7---4h-5p4------4h-5p4---------------------------4h-5p4-----------------
G|---4/6-----------------------------------6--4--6------6/9--8--------------6--4---4/6-----
D|-----------------------------------------------------------------------------------------
A|-----------------------------------------------------------------------------------------
E|-----------------------------------------------------------------------------------------

O lekhdi tera naa jindari zaaniye
E|--------------------------------------------------
B|-----------------------------------------7--------
G|-----------9--8-----6-----6--6--6-----6-----8-----
D|--6--6--6--------9--------------------------------
A|--------------------------------------------------
E|--------------------------------------------------

Bas rehna tere naal ve zuriye
E|--------------------------------------------------
B|--------------------------------------------------
G|-----------9--8-----6-----6--6--6-----------------
D|--6--6--6--------9-----------------9--9--7--6-----
A|--------------------------------------------------
E|--------------------------------------------------

Rehna tu pal pal dil ke paas
E|--------------------------------------------------
B|-----------------------------------------7--------
G|-----------9--8-----6-----6--6--6-----6-----8-----
D|--6--6--6--------9--------------------------------
A|--------------------------------------------------
E|--------------------------------------------------


Judi rahe tujhse har ik saans
E|--------------------------------------------------
B|--------------------------------------------------
G|-----------9--8-----6-----6--6--6-----------------
D|--6--6--6--------9-----------------9--9--7--6-----
A|--------------------------------------------------
E|--------------------------------------------------


Seene se tere sarr ko lagaa ke
E|-----------------------------------------------------------
B|-----------4--5--7---4h-5p4--4-----------4------4h-5p4-----
G|---4/6--6--------------------------4--6--------------------
D|-----------------------------------------------------------
A|-----------------------------------------------------------
E|-----------------------------------------------------------


Sunti main rahun naam apna
E|-----------------------------------------------------------------------------------------
B|--------4--5--5--7---4h-5p4------4h-5p4---------------------------4h-5p4-----------------
G|---4/6-----------------------------------6--4--6------6/9--8--------------6--4---4/6-----
D|-----------------------------------------------------------------------------------------
A|-----------------------------------------------------------------------------------------
E|-----------------------------------------------------------------------------------------

Naal tere ik ghar main sochaan
E|-----------------------------------------------------
B|--------------5--5--4--------------------------------
G|--------4--6------------6/8---8\6---4h-6p4---6/8-----
D|---4/6-----------------------------------------------
A|-----------------------------------------------------
E|-----------------------------------------------------

Baari kholaan te chann dikh jaave
E|--------------------------------------------------
B|--------------5--5--4-----------------------------
G|--------4--6------------6/8---8\6---4h-6p4--------
D|---4/6--------------------------------------6-----
A|--------------------------------------------------
E|--------------------------------------------------

Akkhan ch beetan raataan saariyaan
E|-----------------------------------------------------
B|--------------5--5--4--------------------------------
G|--------4--6------------6/8---8\6---4h-6p4---6/8-----
D|---4/6-----------------------------------------------
A|-----------------------------------------------------
E|-----------------------------------------------------

Je mann laage te akkh na laage
E|--------------------------------------------------
B|--------------5--5--4-----------------------------
G|--------4--6------------6/8---8\6---4h-6p4--------
D|---4/6--------------------------------------6-----
A|--------------------------------------------------
E|--------------------------------------------------

Pyaar hi ohdein teh pyaar hi khaana
E|-----------------------------------------------------
B|-----------4-----------4-----------5---4h-5p4--4-----
G|--4-----6-----4--6--------4-----6--------------------
D|-----------------------------------------------------
A|-----------------------------------------------------
E|-----------------------------------------------------

Vich koi aave teh pyaar hi aana
E|--------------------------------------------------
B|-----------4-----------7---4h-5p4--4--------------
G|--6--4--6-----4--6--------------------6--6--6-----
D|--------------------------------------------------
A|--------------------------------------------------
E|--------------------------------------------------

Duniya de vich assi duniya to door
E|--------------------------------------------
B|-----------4--------5--4--------------------
G|--4--6--6-----4--6--------4--6---6/9--8--8--
D|--------------------------------------------
A|--------------------------------------------
E|--------------------------------------------

Hun naal tere mera har sapna
E|--------------------------------------------------
B|---5/7--7--7--7--9---7\5--5--4---4h-5p4--4--5--4--
G|--------------------------------------------------
D|--------------------------------------------------
A|--------------------------------------------------
E|--------------------------------------------------
tabs and chords, guitar tabs, music transcription, music technology, deep learning, music information retrieval, transcribe into tabs & chords, chordify, music renditions, songsterr, reverbnation, tabulature, bollywood chords, ultimate guitar, yousician, guitar lessons, acoustic guitar, electric guitar, guitar tuner, 911 tabs