Guitar Tabs for Painful Truth (electric Guitar)

(/) Slide Up  (\) Slide Down  (h) Hammer On  (p) Pull Off  (b) Bend (r) Release (v) Vibrato (x) Muted

Capo On 1st
Overdrive/Distorted Guitar Throughout

Intro: 
E|--------------------------------------------------------------------------------------------------------
B|--------------------------------------------------------------------------------------------------------
G|--6--6-----6--6--6-----6--6--6-----6--6--6--6--6--6--6-----6--6--6-----6--6--6-----6--6--6--6--6--6--6--
D|--6--6-----6--6--6-----6--6--6-----6--6--6--6--6--6--6-----6--6--6-----6--6--6-----6--6--6--6--6--6--6--
A|--4--4-----4--4--4-----4--4--4-----4--4--4--6--6--1--1-----1--1--1-----1--1--1-----1--6--4--6--4--6--4--
E|--------------------------------------------------------------------------------------------------------

E|--------------------------------------------------------------------------------------------------------
B|--------------------------------------------------------------------------------------------------------
G|--6--6-----6--6--6-----6--6--6-----6--6--6--6--6--6--6-----6--6--6-----6--6--6-----6--6--6--6--6--6--6--
D|--6--6-----6--6--6-----6--6--6-----6--6--6--6--6--6--6-----6--6--6-----6--6--6-----6--6--6--6--6--6--6--
A|--4--4-----4--4--4-----4--4--4-----4--4--4--6--6--1--1-----1--1--1-----1--1--1-----1--6--4--6--4--6--4--
E|--------------------------------------------------------------------------------------------------------

E|--------------------------------------------------------------------------------------------------------
B|--------------------------------------------------------------------------------------------------------
G|--6--6-----6--6--6-----6--6--6-----6--6--6--6--6--6--6-----6--6--6-----6--6--6-----6--6--6--6--6--6--6--
D|--6--6-----6--6--6-----6--6--6-----6--6--6--6--6--6--6-----6--6--6-----6--6--6-----6--6--6--6--6--6--6--
A|--4--4-----4--4--4-----4--4--4-----4--4--4--6--6--1--1-----1--1--1-----1--1--1-----1--6--4--6--4--6--4--
E|--------------------------------------------------------------------------------------------------------

E|--------------------------------------------------------------------------------------------------------
B|--------------------------------------------------------------------------------------------------------
G|--6--6-----6--6--6-----6--6--6-----6--6--6--6--6--6--6-----6--6--6-----6--6--6-----6--6--6--6--6--6--6--
D|--6--6-----6--6--6-----6--6--6-----6--6--6--6--6--6--6-----6--6--6-----6--6--6-----6--6--6--6--6--6--6--
A|--4--4-----4--4--4-----4--4--4-----4--4--4--6--6--1--1-----1--1--1-----1--1--1-----1--6--4--6--4--6--4--
E|--------------------------------------------------------------------------------------------------------

Verse 1:
Why don't you tell me everything,
E|--------------------------------------------------------------------------------------------------
B|--------------------------------------------------------------------------------------------------
G|--6-----6--6--6--6--6--6--6--6--6--6--6--6--6--6--6-----6--6--6--6--6--6--6--6--6--6--6--6--6--6--
D|--6-----6--6--6--6--6--6--6--6--6--6--6--6--6--6--6-----6--6--6--6--6--6--6--6--6--6--6--6--6--6--
A|--4-----4--4--4--4--4--4--4--4--4--4--4--6--6--6--1-----1--1--1--1--1--1--1--1--1--1--1--6--6--6--
E|--------------------------------------------------------------------------------------------------
Especially the things I do not wanna hear,
E|--------------------------------------------------------------------------------------------------
B|--------------------------------------------------------------------------------------------------
G|--6-----6--6--6--6--6--6--6--6--6--6--6--6--6--6--6-----6--6--6--6--6--6--6--6--6--6--6--6--6--6--
D|--6-----6--6--6--6--6--6--6--6--6--6--6--6--6--6--6-----6--6--6--6--6--6--6--6--6--6--6--6--6--6--
A|--4-----4--4--4--4--4--4--4--4--4--4--4--6--6--6--1-----1--1--1--1--1--1--1--1--1--1--1--6--6--6--
E|--------------------------------------------------------------------------------------------------
In fact just lay it out in excuciating detail,
E|--------------------------------------------------------------------------------------------------
B|--------------------------------------------------------------------------------------------------
G|--6-----6--6--6--6--6--6--6--6--6--6--6--6--6--6--6-----6--6--6--6--6--6--6--6--6--6--6--6--6--6--
D|--6-----6--6--6--6--6--6--6--6--6--6--6--6--6--6--6-----6--6--6--6--6--6--6--6--6--6--6--6--6--6--
A|--4-----4--4--4--4--4--4--4--4--4--4--4--6--6--6--1-----1--1--1--1--1--1--1--1--1--1--1--6--6--6--
E|--------------------------------------------------------------------------------------------------
As per your biased recollection,
E|--------------------------------------------------------------------------------------------------
B|--------------------------------------------------------------------------------------------------
G|--6-----6--6--6--6--6--6--6--6--6--6--6--6--6--6--6-----6--6--6--6--6--6--6--6--6--6--6--6--6--6--
D|--6-----6--6--6--6--6--6--6--6--6--6--6--6--6--6--6-----6--6--6--6--6--6--6--6--6--6--6--6--6--6--
A|--4-----4--4--4--4--4--4--4--4--4--4--4--6--6--6--1-----1--1--1--1--1--1--1--1--1--1--1--6--6--6--
E|--------------------------------------------------------------------------------------------------

Pre-Chorus:
But I will not take even a moment to hear you out,
E|--------------------------------------------------------------------------------------------------
B|--------------------------------------------------------------------------------------------------
G|--------------------------------------------------------------------------------------------------
D|--4-----4--4--4--4--4--4--4--4--4--4--4--4--4--4--6-----6--6--6--6--6--6--6--6--6--6--6--6--6--6--
A|--4-----4--4--4--4--4--4--4--4--4--4--4--4--4--4--6-----6--6--6--6--6--6--6--6--6--6--6--6--6--6--
E|--2-----2--2--2--2--2--2--2--2--2--2--2--2--2--2--4-----4--4--4--4--4--4--4--4--4--4--4--4--4--4--
I'm not a man with that kind of time,
E|-----------------------------------------------------------------------------------------------------
B|-----------------------------------------------------------------------------------------------------
G|--6-----6--6--6--6--6--6-----------------------------------------------------------------------------
D|--6-----6--6--6--6--6--6--6-----6--6--6--6--6--6-----4-----4--4--4--4--4--4--4--4--4--4--4--4--4--4--
A|--4-----4--4--4--4--4--4--6-----6--6--6--6--6--6-----4-----4--4--4--4--4--4--4--4--4--4--4--4--4--4--
E|--------------------------4-----4--4--4--4--4--4-----2-----2--2--2--2--2--2--2--2--2--2--2--2--2--2--
This always was the worst of feelings,
E|--------------------------------------------------------------------------------------
B|--------------------------------------------------------------------------------------
G|--------------------------------------------------------------------------------------
D|--4-----4--4--4--4--4--4--4--4--4--4--4--4--4--4--6-----6--6--6--6--6--6--6--6--6--6--
A|--4-----4--4--4--4--4--4--4--4--4--4--4--4--4--4--6-----6--6--6--6--6--6--6--6--6--6--
E|--2-----2--2--2--2--2--2--2--2--2--2--2--2--2--2--4-----4--4--4--4--4--4--4--4--4--4--

Chorus:
Give me truth of give me death,
E|--------------------------------------------------------------------------------------------------
B|--------------------------------------------------------------------------------------------------
G|--6-----6--6--6--6--6--6--6--6--6--6--6--6--6--6--------------------------------------------------
D|--6-----6--6--6--6--6--6--6--6--6--6--6--6--6--6--6-----6--6--6--6--6--6--6--6--6--6--6--6--6--6--
A|--4-----4--4--4--4--4--4--4--4--4--4--4--4--4--4--6-----6--6--6--6--6--6--6--6--6--6--6--6--6--6--
E|--------------------------------------------------4-----4--4--4--4--4--4--4--4--4--4--4--4--4--4--
Go on before I change my mind,
E|--------------------------------------------------------------------------------------------------
B|--------------------------------------------------------------------------------------------------
G|--------------------------------------------------------------------------------------------------
D|--4-----4--4--4--4--4--4--4--4--4--4--4--4--4--4--7-----7--7--7--7--7--7--7--7--7--7--7--6--6--6--
A|--4-----4--4--4--4--4--4--4--4--4--4--4--4--4--4--7-----7--7--7--7--7--7--7--7--7--7--7--6--6--6--
E|--2-----2--2--2--2--2--2--2--2--2--2--2--2--2--2--5-----5--5--5--5--5--5--5--5--5--5--5--4--4--4--
It's not like I'll make it out of this unscathed,
E|--------------------------------------------------------------------------------------------------
B|--------------------------------------------------------------------------------------------------
G|--6-----6--6--6--6--6--6--6--6--6--6--6--6--6--6--------------------------------------------------
D|--6-----6--6--6--6--6--6--6--6--6--6--6--6--6--6--6-----6--6--6--6--6--6--6--6--6--6--6--6--6--6--
A|--4-----4--4--4--4--4--4--4--4--4--4--4--4--4--4--6-----6--6--6--6--6--6--6--6--6--6--6--6--6--6--
E|--------------------------------------------------4-----4--4--4--4--4--4--4--4--4--4--4--4--4--4--
But at least I'll finally know what's real enough,
E|--------------------------------------------------------------------------------------------------
B|--------------------------------------------------------------------------------------------------
G|--------------------------------------------------------------------------------------------------
D|--7-----7--7--7--7--7--7--7--7--7--7--7--7--7--7--4--4--4--4--4--4--4--4--7--7--7--7--7--7--7--7--
A|--7-----7--7--7--7--7--7--7--7--7--7--7--7--7--7--4--4--4--4--4--4--4--4--7--7--7--7--7--7--7--7--
E|--5-----5--5--5--5--5--5--5--5--5--5--5--5--5--5--2--2--2--2--2--2--2--2--5--5--5--5--5--5--5--5--

Transition: Same As Intro But Half As Long 
E|--------------------------------------------------------------------------------------------------------
B|--------------------------------------------------------------------------------------------------------
G|--6--6-----6--6--6-----6--6--6-----6--6--6--6--6--6--6-----6--6--6-----6--6--6-----6--6--6--6--6--6--6--
D|--6--6-----6--6--6-----6--6--6-----6--6--6--6--6--6--6-----6--6--6-----6--6--6-----6--6--6--6--6--6--6--
A|--4--4-----4--4--4-----4--4--4-----4--4--4--6--6--1--1-----1--1--1-----1--1--1-----1--6--4--6--4--6--4--
E|--------------------------------------------------------------------------------------------------------

E|--------------------------------------------------------------------------------------------------------
B|--------------------------------------------------------------------------------------------------------
G|--6--6-----6--6--6-----6--6--6-----6--6--6--6--6--6--6-----6--6--6-----6--6--6-----6--6--6--6--6--6--6--
D|--6--6-----6--6--6-----6--6--6-----6--6--6--6--6--6--6-----6--6--6-----6--6--6-----6--6--6--6--6--6--6--
A|--4--4-----4--4--4-----4--4--4-----4--4--4--6--6--1--1-----1--1--1-----1--1--1-----1--6--4--6--4--6--4--
E|--------------------------------------------------------------------------------------------------------

Verse 2:
God's honest truth you were never one to care,
E|--------------------------------------------------------------------------------------------------
B|--------------------------------------------------------------------------------------------------
G|--6-----6--6--6--6--6--6--6--6--6--6--6--6--6--6--6-----6--6--6--6--6--6--6--6--6--6--6--6--6--6--
D|--6-----6--6--6--6--6--6--6--6--6--6--6--6--6--6--6-----6--6--6--6--6--6--6--6--6--6--6--6--6--6--
A|--4-----4--4--4--4--4--4--4--4--4--4--4--6--6--6--1-----1--1--1--1--1--1--1--1--1--1--1--6--6--6--
E|--------------------------------------------------------------------------------------------------
I guess it won't matter for very long,
E|--------------------------------------------------------------------------------------------------
B|--------------------------------------------------------------------------------------------------
G|--6-----6--6--6--6--6--6--6--6--6--6--6--6--6--6--6-----6--6--6--6--6--6--6--6--6--6--6--6--6--6--
D|--6-----6--6--6--6--6--6--6--6--6--6--6--6--6--6--6-----6--6--6--6--6--6--6--6--6--6--6--6--6--6--
A|--4-----4--4--4--4--4--4--4--4--4--4--4--6--6--6--1-----1--1--1--1--1--1--1--1--1--1--1--6--6--6--
E|--------------------------------------------------------------------------------------------------
I'm not so perfect myself but at least I'm still convinced,
E|--------------------------------------------------------------------------------------------------
B|--------------------------------------------------------------------------------------------------
G|--6-----6--6--6--6--6--6--6--6--6--6--6--6--6--6--6-----6--6--6--6--6--6--6--6--6--6--6--6--6--6--
D|--6-----6--6--6--6--6--6--6--6--6--6--6--6--6--6--6-----6--6--6--6--6--6--6--6--6--6--6--6--6--6--
A|--4-----4--4--4--4--4--4--4--4--4--4--4--6--6--6--1-----1--1--1--1--1--1--1--1--1--1--1--6--6--6--
E|--------------------------------------------------------------------------------------------------
Go ahead and try to tell me I'm wrong,
E|--------------------------------------------------------------------------------------------------
B|--------------------------------------------------------------------------------------------------
G|--6-----6--6--6--6--6--6--6--6--6--6--6--6--6--6--6-----6--6--6--6--6--6--6--6--6--6--6--6--6--6--
D|--6-----6--6--6--6--6--6--6--6--6--6--6--6--6--6--6-----6--6--6--6--6--6--6--6--6--6--6--6--6--6--
A|--4-----4--4--4--4--4--4--4--4--4--4--4--6--6--6--1-----1--1--1--1--1--1--1--1--1--1--1--6--6--6--
E|--------------------------------------------------------------------------------------------------

Pre-Chorus:
But I will not take even a moment to hear you out,
E|--------------------------------------------------------------------------------------------------
B|--------------------------------------------------------------------------------------------------
G|--------------------------------------------------------------------------------------------------
D|--4-----4--4--4--4--4--4--4--4--4--4--4--4--4--4--6-----6--6--6--6--6--6--6--6--6--6--6--6--6--6--
A|--4-----4--4--4--4--4--4--4--4--4--4--4--4--4--4--6-----6--6--6--6--6--6--6--6--6--6--6--6--6--6--
E|--2-----2--2--2--2--2--2--2--2--2--2--2--2--2--2--4-----4--4--4--4--4--4--4--4--4--4--4--4--4--4--
I'm not a man with that kind of time,
E|-----------------------------------------------------------------------------------------------------
B|-----------------------------------------------------------------------------------------------------
G|--6-----6--6--6--6--6--6-----------------------------------------------------------------------------
D|--6-----6--6--6--6--6--6--6-----6--6--6--6--6--6-----4-----4--4--4--4--4--4--4--4--4--4--4--4--4--4--
A|--4-----4--4--4--4--4--4--6-----6--6--6--6--6--6-----4-----4--4--4--4--4--4--4--4--4--4--4--4--4--4--
E|--------------------------4-----4--4--4--4--4--4-----2-----2--2--2--2--2--2--2--2--2--2--2--2--2--2--
This always was the worst of feelings,
E|--------------------------------------------------------------------------------------
B|--------------------------------------------------------------------------------------
G|--------------------------------------------------------------------------------------
D|--4-----4--4--4--4--4--4--4--4--4--4--4--4--4--4--6-----6--6--6--6--6--6--6--6--6--6--
A|--4-----4--4--4--4--4--4--4--4--4--4--4--4--4--4--6-----6--6--6--6--6--6--6--6--6--6--
E|--2-----2--2--2--2--2--2--2--2--2--2--2--2--2--2--4-----4--4--4--4--4--4--4--4--4--4--

Chorus:
Give me truth of give me death,
E|--------------------------------------------------------------------------------------------------
B|--------------------------------------------------------------------------------------------------
G|--6-----6--6--6--6--6--6--6--6--6--6--6--6--6--6--------------------------------------------------
D|--6-----6--6--6--6--6--6--6--6--6--6--6--6--6--6--6-----6--6--6--6--6--6--6--6--6--6--6--6--6--6--
A|--4-----4--4--4--4--4--4--4--4--4--4--4--4--4--4--6-----6--6--6--6--6--6--6--6--6--6--6--6--6--6--
E|--------------------------------------------------4-----4--4--4--4--4--4--4--4--4--4--4--4--4--4--
Go on before I change my mind,
E|--------------------------------------------------------------------------------------------------
B|--------------------------------------------------------------------------------------------------
G|--------------------------------------------------------------------------------------------------
D|--4-----4--4--4--4--4--4--4--4--4--4--4--4--4--4--7-----7--7--7--7--7--7--7--7--7--7--7--6--6--6--
A|--4-----4--4--4--4--4--4--4--4--4--4--4--4--4--4--7-----7--7--7--7--7--7--7--7--7--7--7--6--6--6--
E|--2-----2--2--2--2--2--2--2--2--2--2--2--2--2--2--5-----5--5--5--5--5--5--5--5--5--5--5--4--4--4--
It's not like I'll make it out of this unscathed,
E|--------------------------------------------------------------------------------------------------
B|--------------------------------------------------------------------------------------------------
G|--6-----6--6--6--6--6--6--6--6--6--6--6--6--6--6--------------------------------------------------
D|--6-----6--6--6--6--6--6--6--6--6--6--6--6--6--6--6-----6--6--6--6--6--6--6--6--6--6--6--6--6--6--
A|--4-----4--4--4--4--4--4--4--4--4--4--4--4--4--4--6-----6--6--6--6--6--6--6--6--6--6--6--6--6--6--
E|--------------------------------------------------4-----4--4--4--4--4--4--4--4--4--4--4--4--4--4--
But at least I'll finally know what's real enough,
E|--------------------------------------------------------------------------------------------------
B|--------------------------------------------------------------------------------------------------
G|--------------------------------------------------------------------------------------------------
D|--7-----7--7--7--7--7--7--7--7--7--7--7--7--7--7--4--4--4--4--4--4--4--4--7--7--7--7--7--7--7--7--
A|--7-----7--7--7--7--7--7--7--7--7--7--7--7--7--7--4--4--4--4--4--4--4--4--7--7--7--7--7--7--7--7--
E|--5-----5--5--5--5--5--5--5--5--5--5--5--5--5--5--2--2--2--2--2--2--2--2--5--5--5--5--5--5--5--5--

Bridge: Same As Intro
E|--------------------------------------------------------------------------------------------------------
B|--------------------------------------------------------------------------------------------------------
G|--6--6-----6--6--6-----6--6--6-----6--6--6--6--6--6--6-----6--6--6-----6--6--6-----6--6--6--6--6--6--6--
D|--6--6-----6--6--6-----6--6--6-----6--6--6--6--6--6--6-----6--6--6-----6--6--6-----6--6--6--6--6--6--6--
A|--4--4-----4--4--4-----4--4--4-----4--4--4--6--6--1--1-----1--1--1-----1--1--1-----1--6--4--6--4--6--4--
E|--------------------------------------------------------------------------------------------------------

E|--------------------------------------------------------------------------------------------------------
B|--------------------------------------------------------------------------------------------------------
G|--6--6-----6--6--6-----6--6--6-----6--6--6--6--6--6--6-----6--6--6-----6--6--6-----6--6--6--6--6--6--6--
D|--6--6-----6--6--6-----6--6--6-----6--6--6--6--6--6--6-----6--6--6-----6--6--6-----6--6--6--6--6--6--6--
A|--4--4-----4--4--4-----4--4--4-----4--4--4--6--6--1--1-----1--1--1-----1--1--1-----1--6--4--6--4--6--4--
E|--------------------------------------------------------------------------------------------------------

E|--------------------------------------------------------------------------------------------------------
B|--------------------------------------------------------------------------------------------------------
G|--6--6-----6--6--6-----6--6--6-----6--6--6--6--6--6--6-----6--6--6-----6--6--6-----6--6--6--6--6--6--6--
D|--6--6-----6--6--6-----6--6--6-----6--6--6--6--6--6--6-----6--6--6-----6--6--6-----6--6--6--6--6--6--6--
A|--4--4-----4--4--4-----4--4--4-----4--4--4--6--6--1--1-----1--1--1-----1--1--1-----1--6--4--6--4--6--4--
E|--------------------------------------------------------------------------------------------------------

E|--------------------------------------------------------------------------------------------------------
B|--------------------------------------------------------------------------------------------------------
G|--6--6-----6--6--6-----6--6--6-----6--6--6--6--6--6--6-----6--6--6-----6--6--6-----6--6--6--6--6--6--6--
D|--6--6-----6--6--6-----6--6--6-----6--6--6--6--6--6--6-----6--6--6-----6--6--6-----6--6--6--6--6--6--6--
A|--4--4-----4--4--4-----4--4--4-----4--4--4--6--6--1--1-----1--1--1-----1--1--1-----1--6--4--6--4--6--4--
E|--------------------------------------------------------------------------------------------------------

Pre-Chorus:
But I will not take even a moment to hear you out,
E|--------------------------------------------------------------------------------------------------
B|--------------------------------------------------------------------------------------------------
G|--------------------------------------------------------------------------------------------------
D|--4-----4--4--4--4--4--4--4--4--4--4--4--4--4--4--6-----6--6--6--6--6--6--6--6--6--6--6--6--6--6--
A|--4-----4--4--4--4--4--4--4--4--4--4--4--4--4--4--6-----6--6--6--6--6--6--6--6--6--6--6--6--6--6--
E|--2-----2--2--2--2--2--2--2--2--2--2--2--2--2--2--4-----4--4--4--4--4--4--4--4--4--4--4--4--4--4--
I'm not a man with that kind of time,
E|-----------------------------------------------------------------------------------------------------
B|-----------------------------------------------------------------------------------------------------
G|--6-----6--6--6--6--6--6-----------------------------------------------------------------------------
D|--6-----6--6--6--6--6--6--6-----6--6--6--6--6--6-----4-----4--4--4--4--4--4--4--4--4--4--4--4--4--4--
A|--4-----4--4--4--4--4--4--6-----6--6--6--6--6--6-----4-----4--4--4--4--4--4--4--4--4--4--4--4--4--4--
E|--------------------------4-----4--4--4--4--4--4-----2-----2--2--2--2--2--2--2--2--2--2--2--2--2--2--
This always was the worst of feelings,
E|--------------------------------------------------------------------------------------
B|--------------------------------------------------------------------------------------
G|--------------------------------------------------------------------------------------
D|--4-----4--4--4--4--4--4--4--4--4--4--4--4--4--4--6-----6--6--6--6--6--6--6--6--6--6--
A|--4-----4--4--4--4--4--4--4--4--4--4--4--4--4--4--6-----6--6--6--6--6--6--6--6--6--6--
E|--2-----2--2--2--2--2--2--2--2--2--2--2--2--2--2--4-----4--4--4--4--4--4--4--4--4--4--

Chorus:
Give me truth of give me death,
E|--------------------------------------------------------------------------------------------------
B|--------------------------------------------------------------------------------------------------
G|--6-----6--6--6--6--6--6--6--6--6--6--6--6--6--6--------------------------------------------------
D|--6-----6--6--6--6--6--6--6--6--6--6--6--6--6--6--6-----6--6--6--6--6--6--6--6--6--6--6--6--6--6--
A|--4-----4--4--4--4--4--4--4--4--4--4--4--4--4--4--6-----6--6--6--6--6--6--6--6--6--6--6--6--6--6--
E|--------------------------------------------------4-----4--4--4--4--4--4--4--4--4--4--4--4--4--4--
Go on before I change my mind,
E|--------------------------------------------------------------------------------------------------
B|--------------------------------------------------------------------------------------------------
G|--------------------------------------------------------------------------------------------------
D|--4-----4--4--4--4--4--4--4--4--4--4--4--4--4--4--7-----7--7--7--7--7--7--7--7--7--7--7--6--6--6--
A|--4-----4--4--4--4--4--4--4--4--4--4--4--4--4--4--7-----7--7--7--7--7--7--7--7--7--7--7--6--6--6--
E|--2-----2--2--2--2--2--2--2--2--2--2--2--2--2--2--5-----5--5--5--5--5--5--5--5--5--5--5--4--4--4--
It's not like I'll make it out of this unscathed,
E|--------------------------------------------------------------------------------------------------
B|--------------------------------------------------------------------------------------------------
G|--6-----6--6--6--6--6--6--6--6--6--6--6--6--6--6--------------------------------------------------
D|--6-----6--6--6--6--6--6--6--6--6--6--6--6--6--6--6-----6--6--6--6--6--6--6--6--6--6--6--6--6--6--
A|--4-----4--4--4--4--4--4--4--4--4--4--4--4--4--4--6-----6--6--6--6--6--6--6--6--6--6--6--6--6--6--
E|--------------------------------------------------4-----4--4--4--4--4--4--4--4--4--4--4--4--4--4--
But at least I'll finally know what's real enough,
E|--------------------------------------------------------------------------------------------------
B|--------------------------------------------------------------------------------------------------
G|--------------------------------------------------------------------------------------------------
D|--7-----7--7--7--7--7--7--7--7--7--7--7--7--7--7--4--4--4--4--4--4--4--4--7--7--7--7--7--7--7--7--
A|--7-----7--7--7--7--7--7--7--7--7--7--7--7--7--7--4--4--4--4--4--4--4--4--7--7--7--7--7--7--7--7--
E|--5-----5--5--5--5--5--5--5--5--5--5--5--5--5--5--2--2--2--2--2--2--2--2--5--5--5--5--5--5--5--5--

Outro:
E|--------------------------------------------------------------------------------------------------------
B|--------------------------------------------------------------------------------------------------------
G|--6--6-----6--6--6-----6--6--6-----6--6--6--6--6--6--6-----6--6--6-----6--6--6-----6--6--6--6--6--6--6--
D|--6--6-----6--6--6-----6--6--6-----6--6--6--6--6--6--6-----6--6--6-----6--6--6-----6--6--6--6--6--6--6--
A|--4--4-----4--4--4-----4--4--4-----4--4--4--6--6--1--1-----1--1--1-----1--1--1-----1--6--4--6--4--6--4--
E|--------------------------------------------------------------------------------------------------------

E|--------------------------------------------------------------------------------------
B|--------------------------------------------------------------------------------------
G|--6--6-----6--6--6-----6--6--6-----6--6--6--6--6--6--6-----6--6--6-----6--6--6--6--6--
D|--6--6-----6--6--6-----6--6--6-----6--6--6--6--6--6--6-----6--6--6-----6--6--6--6--6--
A|--4--4-----4--4--4-----4--4--4-----4--4--4--6--6--1--1-----1--1--1-----1--1--1--1--1--
E|--------------------------------------------------------------------------------------
tabs and chords, guitar tabs, music transcription, music technology, deep learning, music information retrieval, transcribe into tabs & chords, chordify, music renditions, songsterr, reverbnation, tabulature, bollywood chords, ultimate guitar, yousician, guitar lessons, acoustic guitar, electric guitar, guitar tuner, 911 tabs