Bass Tabs for Painful Truth (bass)

(/) Slide Up  (\) Slide Down  (h) Hammer On  (p) Pull Off  (b) Bend (r) Release (v) Vibrato (x) Muted

Intro:
G|--------------------------------------------------------------------------------------------------
D|--------------------------------------------------------------------------------------------------
A|--4--4-----4--4--4-----4--4--4-----4--4--4--6--6--------------------------------------------------
E|--------------------------------------------------6--6-----6--6--6-----6--6--6-----6--6--6--4--4--

G|--------------------------------------------------------------------------------------------------
D|--------------------------------------------------------------------------------------------------
A|--4--4-----4--4--4-----4--4--4-----4--4--4--6--6--------------------------------------------------
E|--------------------------------------------------6--6-----6--6--6-----6--6--6-----6--6--6--4--4--

Verse 1: 
Why don't you tell me everything,
G|--------------------------------------------------------------------------------------------------
D|--------------------------------------------------------------------------------------------------
A|--4--4-----4--4--4-----4--4--4-----4--4--4--6--6--------------------------------------------------
E|--------------------------------------------------6--6-----6--6--6-----6--6--6-----6--6--6--4--4--
Especially the things I do not wanna hear,
G|--------------------------------------------------------------------------------------------------
D|--------------------------------------------------------------------------------------------------
A|--4--4-----4--4--4-----4--4--4-----4--4--4--6--6--------------------------------------------------
E|--------------------------------------------------6--6-----6--6--6-----6--6--6-----6--6--6--4--4--
In fact just lay it out in excruciating detail,
G|--------------------------------------------------------------------------------------------------
D|--------------------------------------------------------------------------------------------------
A|--4--4-----4--4--4-----4--4--4-----4--4--4--6--6--------------------------------------------------
E|--------------------------------------------------6--6-----6--6--6-----6--6--6-----6--6--6--4--4--
As per your biased recollection,
G|--------------------------------------------------------------------------------------------------
D|--------------------------------------------------------------------------------------------------
A|--4--4-----4--4--4-----4--4--4-----4--4--4--6--6--------------------------------------------------
E|--------------------------------------------------6--6-----6--6--6-----6--6--6-----6--6--6--4--4--

Pre-Chorus:
But I will not take even a moment to hear you out,
G|--------------------------------------------------------------------------------------------------
D|--------------------------------------------------------------------------------------------------
A|--------------------------------------------------------------------------------------------------
E|--2-----2--2--2--2--2--2--2--2--2--2--2--2--2--2--4-----4--4--4--4--4--4--4--4--4--4--4--4--4--4--
I'm not a man with that kind of time,
G|--------------------------------------------------------------------------------------------------
D|--------------------------------------------------------------------------------------------------
A|--4-----4--4--4--4--4--4--------------------------------------------------------------------------
E|--------------------------4-----4--4--4--4--4--4--2-----2--2--2--2--2--2--2--2--2--2--2--2--2--2--
This always was the worst of feelings,
G|--------------------------------------
D|--------------------------------------
A|--------------------------------------
E|--4-----4--4--4--4--4--4--4--4--4--4--

Chorus:
Give me truth or give me death,
G|--------------------------------------------------------------------------------------------------
D|--------------------------------------------------------------------------------------------------
A|--4-----4--4--4--4--4--4--4--4--4--4--4--4--4--4--------------------------------------------------
E|--------------------------------------------------4-----4--4--4--4--4--4--4--4--4--4--4--4--4--4--
Go on before I change my mind,
G|--------------------------------------------------------------------------------------------------
D|--------------------------------------------------------------------------------------------------
A|--------------------------------------------------------------------------------------------------
E|--2-----2--2--2--2--2--2--2--2--2--2--2--2--2--2--5-----5--5--5--5--5--5--5--5--5--5--5--4--4--4--
It's not like I'll make it out of this unscathed,
G|--------------------------------------------------------------------------------------------------
D|--------------------------------------------------------------------------------------------------
A|--4-----4--4--4--4--4--4--4--4--4--4--4--4--4--4--------------------------------------------------
E|--------------------------------------------------4-----4--4--4--4--4--4--4--4--4--4--4--4--4--4--
But at least I'll finally know what's real enough,
G|--------------------------------------------------------------------------------------------------
D|--------------------------------------------------------------------------------------------------
A|--------------------------------------------------------------------------------------------------
E|--5-----5--5--5--5--5--5--5--5--5--5--5--5--5--5--2--2--2--2--2--2--2--2--5--5--5--5--5--5--5--5--

Transition: Same As Intro
G|--------------------------------------------------------------------------------------------------
D|--------------------------------------------------------------------------------------------------
A|--4--4-----4--4--4-----4--4--4-----4--4--4--6--6--------------------------------------------------
E|--------------------------------------------------6--6-----6--6--6-----6--6--6-----6--6--6--4--4--

G|--------------------------------------------------------------------------------------------------
D|--------------------------------------------------------------------------------------------------
A|--4--4-----4--4--4-----4--4--4-----4--4--4--6--6--------------------------------------------------
E|--------------------------------------------------6--6-----6--6--6-----6--6--6-----6--6--6--4--4--

Verse 2: 
God's honest truth you were never one to care,
G|--------------------------------------------------------------------------------------------------
D|--------------------------------------------------------------------------------------------------
A|--4--4-----4--4--4-----4--4--4-----4--4--4--6--6--------------------------------------------------
E|--------------------------------------------------6--6-----6--6--6-----6--6--6-----6--6--6--4--4--
I guess it won't matter for very long,
G|--------------------------------------------------------------------------------------------------
D|--------------------------------------------------------------------------------------------------
A|--4--4-----4--4--4-----4--4--4-----4--4--4--6--6--------------------------------------------------
E|--------------------------------------------------6--6-----6--6--6-----6--6--6-----6--6--6--4--4--
I'm not so perfect myself but at least I'm still convinved,
G|--------------------------------------------------------------------------------------------------
D|--------------------------------------------------------------------------------------------------
A|--4--4-----4--4--4-----4--4--4-----4--4--4--6--6--------------------------------------------------
E|--------------------------------------------------6--6-----6--6--6-----6--6--6-----6--6--6--4--4--
Go ahead and try to tell me I'm wrong,
G|--------------------------------------------------------------------------------------------------
D|--------------------------------------------------------------------------------------------------
A|--4--4-----4--4--4-----4--4--4-----4--4--4--6--6--------------------------------------------------
E|--------------------------------------------------6--6-----6--6--6-----6--6--6-----6--6--6--4--4--

Pre-Chorus:
But I will not take even a moment to hear you out,
G|--------------------------------------------------------------------------------------------------
D|--------------------------------------------------------------------------------------------------
A|--------------------------------------------------------------------------------------------------
E|--2-----2--2--2--2--2--2--2--2--2--2--2--2--2--2--4-----4--4--4--4--4--4--4--4--4--4--4--4--4--4--
I'm not a man with that kind of time,
G|--------------------------------------------------------------------------------------------------
D|--------------------------------------------------------------------------------------------------
A|--4-----4--4--4--4--4--4--------------------------------------------------------------------------
E|--------------------------4-----4--4--4--4--4--4--2-----2--2--2--2--2--2--2--2--2--2--2--2--2--2--
This always was the worst of feelings,
G|--------------------------------------
D|--------------------------------------
A|--------------------------------------
E|--4-----4--4--4--4--4--4--4--4--4--4--

Chorus:
Give me truth or give me death,
G|--------------------------------------------------------------------------------------------------
D|--------------------------------------------------------------------------------------------------
A|--4-----4--4--4--4--4--4--4--4--4--4--4--4--4--4--------------------------------------------------
E|--------------------------------------------------4-----4--4--4--4--4--4--4--4--4--4--4--4--4--4--
Go on before I change my mind,
G|--------------------------------------------------------------------------------------------------
D|--------------------------------------------------------------------------------------------------
A|--------------------------------------------------------------------------------------------------
E|--2-----2--2--2--2--2--2--2--2--2--2--2--2--2--2--5-----5--5--5--5--5--5--5--5--5--5--5--4--4--4--
It's not like I'll make it out of this unscathed,
G|--------------------------------------------------------------------------------------------------
D|--------------------------------------------------------------------------------------------------
A|--4-----4--4--4--4--4--4--4--4--4--4--4--4--4--4--------------------------------------------------
E|--------------------------------------------------4-----4--4--4--4--4--4--4--4--4--4--4--4--4--4--
But at least I'll finally know what's real enough,
G|--------------------------------------------------------------------------------------------------
D|--------------------------------------------------------------------------------------------------
A|--------------------------------------------------------------------------------------------------
E|--5-----5--5--5--5--5--5--5--5--5--5--5--5--5--5--2--2--2--2--2--2--2--2--5--5--5--5--5--5--5--5--

Bridge: Same As Intro & Transition But Twice As Long
G|--------------------------------------------------------------------------------------------------
D|--------------------------------------------------------------------------------------------------
A|--4--4-----4--4--4-----4--4--4-----4--4--4--6--6--------------------------------------------------
E|--------------------------------------------------6--6-----6--6--6-----6--6--6-----6--6--6--4--4--

G|--------------------------------------------------------------------------------------------------
D|--------------------------------------------------------------------------------------------------
A|--4--4-----4--4--4-----4--4--4-----4--4--4--6--6--------------------------------------------------
E|--------------------------------------------------6--6-----6--6--6-----6--6--6-----6--6--6--4--4--

G|--------------------------------------------------------------------------------------------------
D|--------------------------------------------------------------------------------------------------
A|--4--4-----4--4--4-----4--4--4-----4--4--4--6--6--------------------------------------------------
E|--------------------------------------------------6--6-----6--6--6-----6--6--6-----6--6--6--4--4--

G|--------------------------------------------------------------------------------------------------
D|--------------------------------------------------------------------------------------------------
A|--4--4-----4--4--4-----4--4--4-----4--4--4--6--6--------------------------------------------------
E|--------------------------------------------------6--6-----6--6--6-----6--6--6-----6--6--6--4--4--

Pre-Chorus:
But I will not take even a moment to hear you out,
G|--------------------------------------------------------------------------------------------------
D|--------------------------------------------------------------------------------------------------
A|--------------------------------------------------------------------------------------------------
E|--2-----2--2--2--2--2--2--2--2--2--2--2--2--2--2--4-----4--4--4--4--4--4--4--4--4--4--4--4--4--4--
I'm not a man with that kind of time,
G|--------------------------------------------------------------------------------------------------
D|--------------------------------------------------------------------------------------------------
A|--4-----4--4--4--4--4--4--------------------------------------------------------------------------
E|--------------------------4-----4--4--4--4--4--4--2-----2--2--2--2--2--2--2--2--2--2--2--2--2--2--
This always was the worst of feelings,
G|--------------------------------------
D|--------------------------------------
A|--------------------------------------
E|--4-----4--4--4--4--4--4--4--4--4--4--

Chorus:
Give me truth or give me death,
G|--------------------------------------------------------------------------------------------------
D|--------------------------------------------------------------------------------------------------
A|--4-----4--4--4--4--4--4--4--4--4--4--4--4--4--4--------------------------------------------------
E|--------------------------------------------------4-----4--4--4--4--4--4--4--4--4--4--4--4--4--4--
Go on before I change my mind,
G|--------------------------------------------------------------------------------------------------
D|--------------------------------------------------------------------------------------------------
A|--------------------------------------------------------------------------------------------------
E|--2-----2--2--2--2--2--2--2--2--2--2--2--2--2--2--5-----5--5--5--5--5--5--5--5--5--5--5--4--4--4--
It's not like I'll make it out of this unscathed,
G|--------------------------------------------------------------------------------------------------
D|--------------------------------------------------------------------------------------------------
A|--4-----4--4--4--4--4--4--4--4--4--4--4--4--4--4--------------------------------------------------
E|--------------------------------------------------4-----4--4--4--4--4--4--4--4--4--4--4--4--4--4--
But at least I'll finally know what's real enough,
G|--------------------------------------------------------------------------------------------------
D|--------------------------------------------------------------------------------------------------
A|--------------------------------------------------------------------------------------------------
E|--5-----5--5--5--5--5--5--5--5--5--5--5--5--5--5--2--2--2--2--2--2--2--2--5--5--5--5--5--5--5--5--

Outro:
G|--------------------------------------------------------------------------------------------------
D|--------------------------------------------------------------------------------------------------
A|--4--4-----4--4--4-----4--4--4-----4--4--4--6--6--------------------------------------------------
E|--------------------------------------------------6--6-----6--6--6-----6--6--6-----6--6--6--4--4--

G|--------------------------------------------------------------------------------------
D|--------------------------------------------------------------------------------------
A|--4--4-----4--4--4-----4--4--4-----4--4--4--6--6--------------------------------------
E|--------------------------------------------------6--6-----6--6--6-----6--6--6--6--6--
tabs and chords, guitar tabs, music transcription, music technology, deep learning, music information retrieval, transcribe into tabs & chords, chordify, music renditions, songsterr, reverbnation, tabulature, bollywood chords, ultimate guitar, yousician, guitar lessons, acoustic guitar, electric guitar, guitar tuner, 911 tabs