Guitar Tabs for Electric Eye

electric eye: 

chorus:

E|-----------------------------------------------------------------------
B|-----3--2--0--------------3--2--0-----3--2--0--------------3--2--0-----
G|-----2--2--0--------------2--2--0-----2--2--0--------------2--2--0-----
D|-----2--2--0--9--7--------2--2--0-----2--2--0--9--7--------2--2--0-----
A|--------------7--5-----------------------------7--5--------------------
E|--0--------------------0--------------------------------0--------------


interlude:

x4
E|-----------------------------------------------------
B|-----------------------------------------------------
G|--7--------5--------7--------5--------7-----5--------
D|--7--------5--------7--------5--------7-----5--------
A|-----0--0-----0--0-----0--0-----0--0-----0-----0-----
E|-----------------------------------------------------


E|-----------------------------------------------------------------------
B|-----------------------------------------------------------------------
G|-----7--------5--4--7-----5--7--------7--------5--4--------5--7-----5--
D|-----7--------5--4--7-----5--7--------7--------5--4--7-----5--7-----5--
A|--0-----0--0-----------0-----------0-----0--0--------7--0--------0-----
E|-----------------------------------------------------------------------



tabs and chords, guitar tabs, music transcription, music technology, deep learning, music information retrieval, transcribe into tabs & chords, chordify, music renditions, songsterr, reverbnation, tabulature, bollywood chords, ultimate guitar, yousician, guitar lessons, acoustic guitar, electric guitar, guitar tuner, 911 tabs