Guitar Tabs for Electric Eye

electric eye:


verse:

E|--------------------------------------------------
B|--------------------------------------------------
G|--2-----------2-----------2-----------0--0--2-----
D|--2-----------2-----------2-----------0--0--2-----
A|--0--0--0--0--0--0--0--0--0--0--0--0--------------
E|--------------------------------------------------


E|--------------------------------------------------
B|--------------------------------------------------
G|--9--9--------9-----------9-----------------------
D|--9--9--------9-----------9-----------7--7--9-----
A|--7--7--------7-----------7-----------5--5--7-----
E|--------0--0-----0--0--0-----0--0--0--------------


E|-----------------------------------------------------------------------------
B|-----------------------------------------------------------------------------
G|---------------------------------------------------------------------9/11----
D|--2--4--5--------2--4--5--------2--4--5--------4--5--7---------------7/9-----
A|-----------3--------------0--------------5--------------2-----2--2-----------
E|-----------------------------------------------------------------------------


tabs and chords, guitar tabs, music transcription, music technology, deep learning, music information retrieval, transcribe into tabs & chords, chordify, music renditions, songsterr, reverbnation, tabulature, bollywood chords, ultimate guitar, yousician, guitar lessons, acoustic guitar, electric guitar, guitar tuner, 911 tabs