Bass Tabs for One Mail Stand - Lemonsweet Bass Tab

(/) Slide Up  (\) Slide Down  (h) Hammer On  (p) Pull Off  (b) Bend (r) Release (v) Vibrato (x) Muted

Tabs for Song : One Mail Stand

Verse 1
G|-----------------------------------------
D|-----------------------7--5--------3--5--
A|-----------------------------------------
D|--12\0-----0--0--5--5--------3--3--------

Refrain
G|--------------------------------------------------------------------------
D|--------------------------------------------------------------------------
A|-----------------------------------------3---3--3---3--3--3--------------------
D|--0---0--0---0--0--0--3---3--3---3--3--3---------------------5---5--5--5--3----

Verse 2:
1. 2x
G|--------7--5-----------------------------------------------
D|--------------7--6--7--8--7--7--6-------7--5--------3--5---
A|---------------------------------------------------------
D|-----0----------------------------5--5--------3--3---------
2. 
G|--------------------------------------------
D|--------------------------7--5--------3--5--
A|--------------3--5--------------------------
D|---0---5--3--------5--5--------3--3--------


Refrain:

Bridge:
G|--------------------------------------------------------------------------------------------------------------
D|--------------------------------------------------------------------------------------------------------------
A|--------------------------------------------------------3-----------------------------------------------------
D|-----0--0--3--0--3--0--0--3--0--0--3--0--3--0--0--3--5-----0--0--3--0--0--3--0--0--3--0--0--8--8--8--7--5--7--

G|--------------------------------------------------------------------------------------------------------------------
D|------------------------3/4------------------------5/6------------------------6/7-----------------------------------
A|--------------------------------------------------------------------------------------------------------------------
D|--0--0--3--0--3--0--0--------0--0--3--0--3--0--0--------0--0--3--0--3--0--0--------0--0--3--0--0--8--8--8--7--5--7--

G|--------
D|--------
A|--------
D|--5--3--

G|--------------------------------------------------
D|--------------------------------------------------
A|--------------3-----------------------3-----------
D|--0-----3-----------5--3--0-----3-----------5--3--

G|--------------------------------------------------------------------------------------------------
D|--------------------------------------------------------------------------------------------------
A|--------------------------3--3--3--3--------------------------------------3--3--3--3--------------
D|--0--0--0--0--3--3--3--3--------------5--5--5--3--0--0--0--0--3--3--3--3--------------5--5--5--3--

G|-----------------------------------------------------------------------------
D|--------------------------------------------------------------------------
A|-----------------------------------------3---3--3---3--3--3------------------
D|--0---0--0---0--0--0--3---3--3---3--3--3---------------------5---5--5--5--3--

G|-----------------------------------------
D|-----------------------------------------
A|--------------3-----------------------3--
D|--0-----3-----------5--3--0-----3--------

Refrain

Verse Two 1. 2x







tabs and chords, guitar tabs, music transcription, music technology, deep learning, music information retrieval, transcribe into tabs & chords, chordify, music renditions, songsterr, reverbnation, tabulature, bollywood chords, ultimate guitar, yousician, guitar lessons, acoustic guitar, electric guitar, guitar tuner, 911 tabs