Bass Tabs for Older

(/) Slide Up  (\) Slide Down  (h) Hammer On  (p) Pull Off  (b) Bend (r) Release (v) Vibrato (x) Muted

Tabs for Song : Older
BPM : 92

1st Verse (I will make plans...)
G|-----------------------------
D|--------9--9-----------------
A|--7--7--------9--7--9--11-7--
E|-----------------------------

CHorus 1 (I'm not agreein cause your right...)
G|--------------------------------------------------------------
D|--------------------------------------------------------------
A|--7--7--7--9--9--9--11-11-11-12-12-12-------------------------
E|--------------------------------------0--0--0--0--0--0--0--0--
Riff
G|-----------------------------------------------------
D|-----------------------------------------------------
A|--7--9--11-14-14-12-11-9--7--------------------------
E|-----------------------------0--0--0--0--0--0--0-----
pre verse
G|-----------
D|-----------
A|--14----7--
E|-----------
Verse 2 (and all i want...)
G|--------------------------------------------------------------
D|--------------------------------------------------------------
A|--14-14-11-11-9--9---6/7-----14-14-11-11-9--9------6/7---6/7--
E|--------------------------------------------------------------
Chorus 3 (I dont feel as if you mine baby we are getting older)
G|--------------------------------------------------------------
D|--------------------------------------------------------------
A|--------------------------------------------------------------
E|--------------------------------------0--0--0--0--0--0--0--0--
you said you were fine as you...
G|--------------------------------------------------------------
D|--------------------------------------------------------------
A|--7--7--7--9--9--9--11-11-11-12-12-12-------------------------
E|--------------------------------------0--0--0--0--0--0--0--0--
Riff 2
G|-----x-----x-----x--------------------------------------------
D|-----x-----x-----x--------------------------------------------
A|--7--x--9--x--11-x--14-14-12-11-9--7--------------------------
E|-----x-----x-----x--------------------0--0--0--0--0--0--0--0--
Outro (Let Ring)
G|-----
D|-----
A|--7--
E|-----



Use manual mode to free up cursor. Paste any tab in acousterr tab maker and we'll play it !!!
tabs and chords, guitar tabs, music transcription, music technology, deep learning, music information retrieval, transcribe into tabs & chords, chordify, music renditions, songsterr, reverbnation, tabulature, bollywood chords, ultimate guitar, yousician, guitar lessons, acoustic guitar, electric guitar, guitar tuner, 911 tabs