Guitar Tabs for O Saathi - Baaghi 2

(/) Slide Up  (\) Slide Down  (h) Hammer On  (p) Pull Off  (b) Bend (r) Release (v) Vibrato (x) Muted

Tabs for Song : 
e|--------------------------------------------------------------------------------
b|--9--8--------------------------------------------------------9--8--11----9--8--
g|--------10-8-----------8--10-8-----10-8-----------------8-----------------------
d|-----------------11-------------------------11-10-8-----------------------------
A|--------------------------------------------------------------------------------
E|--------------------------------------------------------------------------------

e|-----8--8--6--8--6--8--6---8/11-11-11-9--8--------4---4\1--4--1--4--------8--6--6--4--6--
b|--4--------------------------------------------4-----------------------4-----------------
g|-----------------------------------------------------------------------------------------
D|-----------------------------------------------------------------------------------------
A|-----------------------------------------------------------------------------------------
E|-----------------------------------------------------------------------------------------

e|-----8--8--6--8--6--8--6---8/11-11-11-9--8-----------4--1--4--1--4--4--4---4/8--8--6--6--4--6--
b|--4--------------------------------------------4--4--------------------------------------------
g|-----------------------------------------------------------------------------------------------
D|-----------------------------------------------------------------------------------------------
A|-----------------------------------------------------------------------------------------------
E|-----------------------------------------------------------------------------------------------

e|--11-11-9--8---8h-9p8--6--6--8--9--8--11/13-11----------11-13-11h13p11-9--8--6--8---8h-9p8--6--6--11-
b|------------------------------------------------8/9--------------------------------------------------
G|-----------------------------------------------------------------------------------------------------
D|-----------------------------------------------------------------------------------------------------
A|-----------------------------------------------------------------------------------------------------
E|-----------------------------------------------------------------------------------------------------

e|--------------------------------------------------------------------------------------------
b|--9--8-----------------------------------------------------------------------9--8--11-------
g|--------10-8-----------8--10-8-----10-8-----------------------8--10-8-----8-----------------
d|-----------------11-------------------------11-10-8-----11----------------------------------
A|--------------------------------------------------------------------------------------------
E|--------------------------------------------------------------------------------------------

e|--4--4--6--8--8--8--8--9--8--6--6--6--6---6h-8p6--4--3---3h-4p3-----6--6---6h-8p6--4--3---3h4--
b|-----------------------------------------------------------------6-----------------------------
G|-----------------------------------------------------------------------------------------------
D|-----------------------------------------------------------------------------------------------
A|-----------------------------------------------------------------------------------------------
E|-----------------------------------------------------------------------------------------------

e|--4--4--6--8--8--8--8--9--8--6--6--6--6---6h-8p6--4--3---3h-4p3-----6--6---6h-8p6--4--3---3h4--
b|-----------------------------------------------------------------6-----------------------------
G|-----------------------------------------------------------------------------------------------
D|-----------------------------------------------------------------------------------------------
A|-----------------------------------------------------------------------------------------------
E|-----------------------------------------------------------------------------------------------

e|--4--4--4---4/11-11-11-11h13-11-8---8h-9p8--6-----4--4--4---4/11-11-11-11/16-15-13-11-
B|--------------------------------------------------------------------------------------
G|--------------------------------------------------------------------------------------
D|--------------------------------------------------------------------------------------
A|--------------------------------------------------------------------------------------
E|--------------------------------------------------------------------------------------






Song lyrics here
E|--
B|--
G|--
D|--
A|--
E|--

Song lyrics here
E|--
B|--
G|--
D|--
A|--
E|--

Paste any tab in acousterr's tab maker and we'll play it !!!
Now supports capo and sound effects for vibrato/pull-off/hammer/bends/mutes etc !!! Checkout help section
tabs and chords, guitar tabs, music contests, music covers, songsterr, reverbnation, renditions, tabulature, bollywood chords, ultimate guitar, yousician, guitar lessons, torrins, fender, gibson, acoustic guitar, electric guitar, youtube covers, gootar, guitar tuner, A-Z tabs, 911 tabs