Guitar Tabs for O Mere Dil Ke Chain

(/) Slide Up  (\) Slide Down  (h) Hammer On  (p) Pull Off  (b) Bend (r) Release (v) Vibrato (x) Muted

Tabs for Song : 
e|---7/8--7--8---7\5--5--5--7--5--7---5\3---3h5--3--5--3-----------------5--5--5--
b|-----------------------------------------------------------6--5--6--------------
G|--------------------------------------------------------------------------------
D|--------------------------------------------------------------------------------
A|--------------------------------------------------------------------------------
E|--------------------------------------------------------------------------------

e|---7/8--7--8---7\5--5--5--7--5--7---5\3---3h5--3--5--3-----------------5--5--5--
b|-----------------------------------------------------------6--5--6--------------
G|--------------------------------------------------------------------------------
D|--------------------------------------------------------------------------------
A|--------------------------------------------------------------------------------
E|--------------------------------------------------------------------------------

e|--5--7---8/12-5--7---7/8--7--8---8/10----7---7h-8p-7\5--3---1h-3p-1p0--
B|-----------------------------------------------------------------------
G|-----------------------------------------------------------------------
D|-----------------------------------------------------------------------
A|-----------------------------------------------------------------------
E|-----------------------------------------------------------------------

e|-----------3--3--5---5/7--7--3---5/7--7--3--5------8p-7p5--
b|--3--5--5--------------------------------------------------
G|-----------------------------------------------------------
D|-----------------------------------------------------------
A|-----------------------------------------------------------
E|-----------------------------------------------------------

e|---5\3--3--5---5p3---3h-5p-3p0---3p0--------
b|-----------------------------------------3--
G|--------------------------------------------
D|--------------------------------------------
A|--------------------------------------------
E|--------------------------------------------

e|-----------3--3--5---5/7--7--3---5/7--7--3--5------8p-7p5--
b|--3--5--5--------------------------------------------------
G|-----------------------------------------------------------
D|-----------------------------------------------------------
A|-----------------------------------------------------------
E|-----------------------------------------------------------


Song lyrics here
E|--
B|--
G|--
D|--
A|--
E|--

Song lyrics here
E|--
B|--
G|--
D|--
A|--
E|--

Paste any tab in acousterr's tab maker and we'll play it !!!
Now supports capo and sound effects for vibrato/pull-off/hammer/bends/mutes etc !!! Checkout help section
tabs and chords, guitar tabs, music transcription, music technology, deep learning, music information retrieval, transcribe into tabs & chords, chordify, music renditions, songsterr, reverbnation, tabulature, bollywood chords, ultimate guitar, yousician, guitar lessons, acoustic guitar, electric guitar, guitar tuner, 911 tabs