Guitar Tabs for Nothing Else Matters - Metallica (without Solo)

(/) Slide Up  (\) Slide Down  (h) Hammer On  (p) Pull Off  (b) Bend (r) Release (v) Vibrato

Tabs for Song : Nothing Else Matters (Metallica) 

  Intro-Part1
E|--------------------0-----------------------------------0-----------------------------------0-----------------------------------0--
B|--------------0-----------0-----------------------0-----------0-----------------------0-----------0-----------------------0--------
G|--------0-----------------------0-----------0-----------------------0-----------0-----------------------0-----------0--------------
D|-----------------------------------------------------------------------------------------------------------------------------------
A|-----------------------------------------------------------------------------------------------------------------------------------
E|--0-----------------------------------0-----------------------------------0-----------------------------------0--------------------

E|-----------7--7------------------7p0--------------------------7-----8------7h-8\5-----7------5\3--0--
B|-----0--------------------0-----------0-----------------------0-----0-----------------0--------------
G|--------------------0-----------------------0-----------0--------------------------------------------
D|-----------------------------------------------------------------------------------------------------
A|-----------------------------------------------------------------------------------------------------
E|--------------0-----------------------------------0--------------------------------------------------

E|---------------------2p0--------------------------------0-----0-----0-----0------------------3p0--------
B|--5-----------5-----------5-----------------------5-----------5-----5-----5-----------5-----------5-----
G|--------5-----------------------5-----------5-----------------5-----5-----5--------5-----5--------------
D|--------------------------------------------------------------------------------------------------------
A|--0-----------------------------------0-----------------------0-----1-----2-----------------------------
E|--------------------------------------------------------------------------------------------------------

E|---0/0-----0------------------0h-5p0-----------------------------<12->----------------------------
B|---5/7-----7-----------7---------------7p0---0h5--------------<12>--------0-----------------------
G|---5/7-----7--------7-----7--------------------------------<12>-----------------0--------------0--
D|--------------------------------------------------------------------------------------------------
A|---2/4-----4--------------------------------------------------------------------------------------
E|--------------------------------------------------------------------------------------0-----------
 
 Intro-Part2
E|-----------0-----------------------------------0-----------------------------------0-----------------------------------7-----
B|-----0-----------0-----------------------0-----------0-----------------------0-----------0-----------------------------8-----
G|-----------------------0-----------0-----------------------0-----------0-----------------------0--------------------9--------
D|-----------------------------------------------------------------------------------------------------------------9-----------
A|--------------------------------------------------------------------------------------------------------------7--------------
E|-----------------------------0-----------------------------------0-----------------------------------0-----------------------

E|--------------------------------------------------------7-----------------------------------------------------------------7--
B|--------------7-----------------5-----------------------8-----------------------7-----------------5-----------------------8--
G|--------------7-----------------5--------------------9--------------------------7-----------------5--------------------9-----
D|--------7-----------------5-----------------------9-----------------------7-----------------5-----------------------9--------
A|--5-----------------3--------------------------7--------------------5-----------------3--------------------------7-----------
E|--------------------------------------0-----------------------------------------------------------------0--------------------

E|-----------------------------------------------3-----------------------------------------------0--------------------------------
B|-----------7-----------------5--------------------3--------------4-----------------------0-----------0-----------------------0--
G|--------------7-----------------5--------------------4--------------4--------------0-----------------------0-----------0--------
D|-----------------7-----------------5-----------------------------------4--------------------------------------------------------
A|-----5-----------------3-----------------------------------2--------------------------------------------------------------------
E|-----------------------------------------3-----------------------------------0-----------------------------------0--------------
 
 Verse1-             So   close   no   matter   how   far                Could'nt 
E|--0-----------------------------------3--------0--------2--------3--------0-----------------------------------3--------
B|--------0-----------------------0-----------------0-----------------3-----------3-----------------------0--------------
G|--------------0-----------0--------------0-----------0-----------------0-----------0--------------0--------------0-----
D|--------------------------------------------------------0-----0--------------------------------------------------------
A|--------------------------------------------------------------------------3--------------------------------------------
E|--------------------0-----------------------------------------------------------------3--2--0--------------------------
  be  much  more  from  the  heart               Forever  trusting  who  we  are  
E|--0-----------------0--------0-----------------------------------3--------0--------2--------3--------
B|-----0-----3-----------3-----------3-----------------------0-----------------0-----------------3-----
G|--------0-----------------0-----------0--------------0--------------0-----------0-----------------0--
D|-----------0-----0-----------------------------------------------------------------0-----0-----------
A|-----------------------------3-----------------------------------------------------------------------
E|-----------------------------------------3--2--0-----------------------------------------------------
                  And  nothing  else  matters
E|--3--------------3-----2-----2--------0--------0-----------------0-----------------
B|--3--3-----------3-----0--------0-----------0-----0-----------0-----0--------------
G|--0-----0-----0--------2-----------------0-----------0-----0-----------------------
D|-----------------------------------------------------------------------------------
A|--3--------------------2--2--------------------------------------------------------
E|-----------3--------------------------0-----------------0--------------3--2--0-----
    Same for Verse 2 and 3
    
    Chorus-
            Never cared for what they do                 Never cared for they know    
E|--------------2--2--2--3--2--0--------------------2--2--2--3--2--0-----------------2--
B|--1-----2-----3--3--3--3--3--3--------1-----2-----3--3--3--3--3--3-----1-----2-----3--
G|--------2-----2--2--2--2--2--2--------------2-----2--2--2--2--2--2-----------2-----2--
D|--2-----2--------0--0--0--0--0--------2-----2--------0--0--0--0--0-----2-----2--------
A|--3-----------------------------------3--------------------------------3--------------
E|--------------------------------------------------------------------------------------
    C     A     D  Dsus4 D Dadd2        C     A     D Dsus4 D Dadd2      C     A     D
       But I know
E|--------------0-----------------0-----
B|-----------0-----0-----------0-----0--
G|--------0-----------0-----0-----------
D|--------------------------------------
A|--------------------------------------
E|-----0-----------------0--------------
            Em
            
            
E|--12-------14-------15-------17-------8--------8-----------------8--------
B|-----12-------12-------12-------12-------5--------5-----------5-----5-----
G|--------0--------0--------0-----------------5--------5-----5-----------5--
D|--------------------------------------------------------------------------
A|--------------------------------------0-----------------0-----------------
E|--0--------------------------0--------------------------------------------

E|--0-----------0-----0-----------0-----7--------------------0------------7p0--
B|-----1-----------1-----3-----------3-----0--0-----------0-----0--------------
G|--------0-----------------2--------------------0-----0-----------0--0--------
D|--------------------0--------------------------------------------------------
A|--3--------------------------------------------------------------------------
E|--------------------------------------0-----------0--------------------------
    Repeat X2
     


Now supports capo and sound effects for vibrato/pull-off/hammer/bends etc !!! Checkout help section
tabs and chords, guitar tabs, music contests, music covers, songsterr, reverbnation, renditions, tabulature, bollywood chords, ultimate guitar, yousician, guitar lessons, torrins, fender, gibson, acoustic guitar, electric guitar, youtube covers, gootar, guitar tuner, A-Z tabs, 911 tabs