Bass Tabs for Metallica - Nothing Else Matters

Metallica - Nothing Else Matters

Verse
G|--------------------------------------------------------------------------------------------------------------
D|--------------------------------------------------------------------------------------------------------------
A|-----7--5--------------7--5--------------7--5--------------7--5--------------2-----7--------------7-----------
E|--0---------8\3--2--0---------8\3--2--0---------8\3--2--0---------8\3--2--3-----0-----0--0--0--0-----3--2--0--

Pre-Chorus
G|--------------------------------------
D|--------------------------------------
A|-----7--5--------------2-----7--3--0--
E|--0---------8\3--2--3-----0-----------

Chorus
G|--------------------------------------------------------------------------------------------
D|--------------------------------------------------------------------------------------------
A|--5--5--5--5--5--5--3-----0-----5--5--5--5--5--5--3-----0-----5--5--5-----7-----------------
E|-----------------------------------------------------------------------0-----0~~---3--2--0--

1st Guitar Solo
G|----------------------------------------------------------------------------------------------------9-----------
D|----------------------------------------------------------------------------------------------------------------
A|-----7--7-----7--7-----7--7-----7-------0--0--0------0h2---2/3--3--3--2--3---3/5--5--5---5/7-----7--------------
E|--0--------0--------0--------0------7\--------------------------------------------------------0--------0--3--2--

G|-----------------------------------------------------------------------------------------------------
D|-----------------------------------------7--7-----------------------7-----5--------------------------
A|-----7--7-----7--7-----7--7-----------7--------0--2--3--3--2--3--5-----5-----7-----7--7--------------
E|--0--------0--------0--------0--12-5--------------------------------------------0--------0--3--2--0--

Chorus Pre 2nd Guitar Solo
G|--------------------------------    --------------------------------------------------------
D|-------------------------------- 4x --------------------------------------------------------
A|--5--5--5--5--5--5--3-----0-----    --5--5--5---5/7-----7--7--7--7--7--7--7--7--7--7--7--7--
E|--------------------------------    --------------------------------------------------------

2nd Guitar Solo
G|--------------------------------------------------------------------------------------------
D|--------------------------------------------------------------------------------------------
A|--------7--7--5--5--3--------------7--7--5--5--3--------------7--7--5--5--3-----2-----2-----
E|--0--0-----------------3--2--0--0-----------------3--2--0--0-----------------3-----------0~~



tabs and chords, guitar tabs, music contests, music covers, songsterr, reverbnation, renditions, tabulature, bollywood chords, ultimate guitar, yousician, guitar lessons, torrins, fender, gibson, acoustic guitar, electric guitar, youtube covers, gootar, guitar tuner, A-Z tabs, 911 tabs