Guitar Tabs for Nothing Else Matters Intro Metallica Tabs

(/) Slide Up  (\) Slide Down  (h) Hammer On  (p) Pull Off  (b) Bend (r) Release (v) Vibrato

Tabs For Nothing Else Matters (Intro) Metallica


E|-----------0-----------------0-----------------0-----------------0-----
B|--------0-----0-----------0-----0-----------0-----0-----------0-----0--
G|-----0-----------0-----0-----------0-----0-----------0-----0-----------
D|-----------------------------------------------------------------------
A|-----------------------------------------------------------------------
E|--0-----------------0-----------------0-----------------0--------------



E|--7--7--------7--------------7--8---7h-8\5--7---5/0-----
B|-----------0-----0--------------------------0--------5--
G|--------0-----------0-----0--0--0-----------------------
D|--------------------------------------------------------
A|--------------------------------------------------------
E|-----------------------0--------------------------------



E|------------2p0-----------------0--------
B|--5-----5--------5-----------5-----------
G|-----5--------------5-----5--------------
D|-----------------------------------------
A|--0--------------------0-----------0--2--
E|-----------------------------------------


E|-----------------3--0--------0--
B|-----------5-----------5--------
G|--------5-----5-----------5-----
D|--------------------------------
A|--3--3--------------------------
E|--------------------------------


E|--------------0-----------------
B|-----7--5--7-----7--5--0--5--5--
G|--------------------------------
D|--------------------------------
A|--5-----------------------------
E|--------------------------------


E|-----------12----------------0-----------------0-----------------0--------
B|--------12----0-----------0-----0-----------0-----0-----------0-----0-----
G|-----12----------0-----0-----------0-----0-----------0-----0-----------0--
D|--------------------------------------------------------------------------
A|--------------------------------------------------------------------------
E|--0-----------------0-----------------0-----------------0-----------------


E|-----------------7--------------------------------------7-----
B|-----------------8-----------7--------5-----------------8-----
G|--------------9--------------7--------5--------------9--------
D|-----------9--------------7--------5--------------9-----------
A|--------7--------------5--------3--------------7--------------
E|--0--------------------------------------0--------------------


E|-----------------------------7-----7-----------5--------3-----
B|--------7--------5-----------------8--------------7--------5--
G|--------7--------5--------------9-----------------7--------5--
D|-----7--------5-----------------------------------------------
A|--5--------3--------------7-----------------5--------3--------
E|--------------------0-----------------------------------------


E|-----3-----------------------0-----------------0-----------------0-----------------0--------
B|--------4-----------------0-----0-----------0-----0-----------0-----0-----------0-----0-----
G|--------4--------4-----0-----------0-----0-----------0-----0-----------0-----0-----------0--
D|--------------4-----------------------------------------------------------------------------
A|--3--------2--------------------------------------------------------------------------------
E|--------------------0-----------------0-----------------0-----------------0-----------------

So close no matter how far ...
tabs and chords, guitar tabs, music transcription, music technology, deep learning, music information retrieval, transcribe into tabs & chords, chordify, music renditions, songsterr, reverbnation, tabulature, bollywood chords, ultimate guitar, yousician, guitar lessons, acoustic guitar, electric guitar, guitar tuner, 911 tabs