Guitar Tabs for Metallica - Nothing Else Matters

E|-----------0-----------------0-----------------0-----------------0-----7--7--------
B|--------0-----0-----------0-----0-----------0-----0-----------0-----0--------0-----
G|-----0-----------0-----0-----------0-----0-----------0-----0--------------------0--
D|-----------------------------------------------------------------------------------
A|-----------------------------------------------------------------------------------
E|--0-----------------0-----------------0-----------------0-----------------0--------

E|---7p0--------0-----7--8---7h-8\7--5---7p-5p3---------------2p0-----------------0--0--0--0--
B|---0p---0-----------0--0---------------0p------5--5-----5--------5-----------5-----5--5--5--
G|-----------0-----0--------------------------------5--5--------------5-----5--------5--5--5--
D|--------------------------------------------------------------------------------------------
A|--------------------------------------------------0--------------------0-----------0--2--3--
E|--------------0-----------------------------------------------------------------------------

E|---------------3p0--------0-----0------------0h-5p0-----------------------------12-------
B|--------------------5-----5-----7-----7---------------7p0---0h5--------------12----0-----
G|--------5--------------5--5-----7--7-----7--------------------------------12----------0--
D|-----5-----5-----------------------------------------------------------------------------
A|--3-----------------------3-----5--------------------------------------------------------
E|-----------------------------------------------------------------------0-----------------

E|-----------0-----------------0-----------------0--------------------7-----------------------------
B|--------0-----0-----------0-----0-----------0-----0-----------------8--------------7--------5-----
G|-----0-----------0-----0-----------0-----0-----------0-----------9-----------------7--------5-----
D|--------------------------------------------------------------9-----------------7--------5--------
A|-----------------------------------------------------------7-----------------5--------3-----------
E|--0-----------------0-----------------0-----------------0-----------------------------------------

E|--------------7-----------------------------------7--------5-----------3-----------3-----------2--------
B|--------------8-----------7--------5-----------8--------------7-----------5-----------3-----------4-----
G|-----------9--------------7--------5--------9--------------------7-----------5-----------4-----------2--
D|--------9--------------7--------5-----------------------------------------------------------------------
A|-----7--------------5--------3--------------------------------------------------------------------------
E|--0-----------------------------------------------------------------------------------------------------
                              Harm.
E|-----------------------------12-
B|-----------------------------12-
G|---2p0-----0-----------------12-
D|--------4-----------------------
A|--------------------------------
E|--------------------------------
Verse
E|-----------3-----0--------2-----3--------0-----------------------3-----0--------2--------------
B|--------0-----------0--------------3--------3-----------------0-----------0-----------3--------
G|-----0--------0--------0--------------0--------0-----------0--------0--------0------------2p0--
D|--------------------------0--0--------------------------------------------------0--0-----------
A|-----------------------------------------3-----------------------------------------------------
E|--0-----------------------------------------------3--2--0--------------------------------------

E|--------------------------3-----0--------2-----3--------3--------------3--2-----2-----
B|--3-----3--------------0-----------0--------------3--------3-----------3--0--------0--
G|-----0--------------0--------0--------0--------------0--------0-----0-----2-----------
D|-----------------------------------------0--0-----------------------------------------
A|--3-----------------------------------------------------3-----------------2--2--------
E|-----------3--2--0-----------------------------------------------3--------------------

E|--0--------0-----------------0--------------------3-----0--------2-----3--------0--------------
B|--------0-----0-----------0-----0--------------0-----------0--------------3--------3-----------
G|-----0-----------0-----0--------------------0--------0--------0--------------0--------0--------
D|-----------------------------------------------------------------0--0--------------------------
A|--------------------------------------------------------------------------------3--------------
E|--0-----------------0--------------3--2--0-----------------------------------------------3--2--

E|-----------3-----0--------2--------------------------------------3-----0--------2-----3--------
B|--------0-----------0-----------3--------3-----3--------------0-----------0--------------3-----
G|-----0--------0--------0------------2p0-----0--------------0--------0--------0--------------0--
D|--------------------------0--0--------------------------------------------------0--0-----------
A|-----------------------------------------3-----------------------------------------------------
E|--0-----------------------------------------------3--2--0--------------------------------------

E|--3--------------3--2-----2-----0--------0-----------------0--------------
B|-----3-----------3--0--------0--------0-----0-----------0-----0-----------
G|--------0-----0-----2--------------0-----------0-----0--------------------
D|--------------------------------------------------------------------------
A|--3-----------------2--2--------------------------------------------------
E|-----------3--------------------0-----------------0--------------3--2--0--
Verse
E|--------------------------------------------------------------------------
B|--------------------------------------------------------------------------
G|--------------------------------------------------------------------------
D|--------------------------------------------------------------------------
A|--------------------------------------------------------------------------
E|--------------------------------------------------------------------------
Chorus
E|--0-----------------2-----2--2--2--3--2--0--2--0-----------------2--2--2--2--3--2--0--2--0-----------
B|--1--------2--------3-----3--3--3--3--3--3--3--1--------2--------3--3--3--3--3--3--3--3--1--------2--
G|--0--------2--------2-----2--2--2--2--2--2--2--0--------2--------2--2--2--2--2--2--2--2--0--------2--
D|--2--------2--------0-----0--0--0--0--0--0--0--2--------2--------0--0--0--0--0--0--0--0--2--------2--
A|--3--------0-----------------------------------3--------0--------------------------------3--------0--
E|-----------------------------------------------------------------------------------------------------

E|--------2--2--2--2--------------0-----------------0--------------------3-----0--------2--
B|--------3--3--3--3-----------0-----0-----------0-----0--------------0-----------0--------
G|--------2--2--2--2--------0-----------0-----0--------------------0--------0--------0-----
D|--------0--0--0--0--------------------------------------------------------------------0--
A|-----------------------------------------------------------------------------------------
E|-----------------------0-----------------0--------------3--2--0--------------------------

E|-----3--------0-----------------------3-----0--------2-----------------------------
B|--------3--------3-----------------0-----------0-----------3--------3-----3--------
G|-----------0--------0-----------0--------0--------0-----------2--0-----0-----------
D|--0--------------------------------------------------0--0--------------------------
A|--------------3-----------------------------------------------------3--------------
E|-----------------------3--2--0-----------------------------------------------3--2--

E|-----------3-----0--------2-----3--------3--------------3--2-----2-----0--------0--------
B|--------0-----------0--------------3--------3-----------3--0--------0--------0-----0-----
G|-----0--------0--------0--------------0--------0-----0-----2--------------0-----------0--
D|--------------------------0--0-----------3-----------------------------------------------
A|-----------------------------------------------------------2--2--------------------------
E|--0-----------------------------------------------3--------------------0-----------------
Chorus
E|--0-----------------2-----2--2--2--3--2--0--2--0-----------------2--2--2--2--3--2--0--2--0-----------
B|--1--------2--------3-----3--3--3--3--3--3--3--1--------2--------3--3--3--3--3--3--3--3--1--------2--
G|--0--------2--------2-----2--2--2--2--2--2--2--0--------2--------2--2--2--2--2--2--2--2--0--------2--
D|--2--------2--------0-----0--0--0--0--0--0--0--2--------2--------0--0--0--0--0--0--0--0--2--------2--
A|--3--------0-----------------------------------3--------0--------------------------------3--------0--
E|-----------------------------------------------------------------------------------------------------

E|--------2--2--2--2--------------0-----------------0-----------
B|--------3--3--3--3-----------0-----0-----------0-----0--------
G|--------2--2--2--2--------0-----------0-----0-----------------
D|--------0--0--0--0--------------------------------------------
A|--------------------------------------------------------------
E|-----------------------0-----------------0--------------3--2--

E|--15-------17-------19-------20-------12-------------------12----------------14----------------12----12----------
B|-----17-------17-------17-------17-------13-------------------13----------------15----------12----------12-------
G|-----------------------------------------------------------------12----------------14----------------------------
D|-----------------------------------------------------------------------------------------------------------------
A|-----------------------------------------------------------------------------------------------------------------
E|-----------------------------------------------------------------------------------------------------------------

E|--15-------17-------19-------20-------12-------------------12-------------------------------------------------------------
B|-----17-------17-------17-------17-------13-------------------13-------------------------------------------14b16r14-14----
G|-----------------------------------------------------------------12----------------12----12h14-------12h14-14b16r14-14-12v
D|-----------------------------------------------------------------------------12h14-------------12h14----------------------
A|--------------------------------------------------------------------------------------------------------------------------
E|--------------------------------------------------------------------------------------------------------------------------

Verse
E|-----------3-----0--------2-----3--------0-----------------------3-----0--------2-----------
B|--------0-----------0--------------3--------3-----------------0-----------0-----------3-----
G|-----0--------0--------0--------------0--------0-----------0--------0--------0-----------2--
D|--------------------------0--0--------------------------------------------------0--0--------
A|-----------------------------------------3--------------------------------------------------
E|--0-----------------------------------------------3--2--0-----------------------------------

E|--------------------------3-----0--------2-----3--------3--------------3--2-----2-----
B|--3-----3--------------0-----------0--------------3--------3-----------3--0--------0--
G|-----0--------------0--------0--------0--------------0--------0-----0-----2-----------
D|-----------------------------------------0--0-----------------------------------------
A|--3-----------------------------------------------------3-----------------2--2--------
E|-----------3--2--0-----------------------------------------------3--------------------

E|--0--------0-----------------0--------------------3-----0--------2-----3--------0--------------
B|--------0-----0-----------0-----0--------------0-----------0--------------3--------3-----------
G|-----0-----------0-----0--------------------0--------0--------0--------------0--------0--------
D|-----------------------------------------------------------------0--0--------------------------
A|--------------------------------------------------------------------------------3--------------
E|--0-----------------0--------------3--2--0-----------------------------------------------3--2--

E|-----------3-----0--------2--------------------------------------3-----0--------2-----3--------
B|--------0-----------0-----------3--------3-----3--------------0-----------0--------------3-----
G|-----0--------0--------0------------2p0-----0--------------0--------0--------0--------------0--
D|--------------------------0--0--------------------------------------------------0--0-----------
A|-----------------------------------------3-----------------------------------------------------
E|--0-----------------------------------------------3--2--0--------------------------------------

E|--3--------------3--2-----2-----0--------0-----------------0-----------------
B|-----3-----------3--0--------0--------0-----0-----------0-----0--------------
G|--------0-----0-----2--------------0-----------0-----0-----------0-----------
D|-----------------------------------------------------------------------------
A|--3-----------------2--2-----------------------------------------------------
E|-----------3--------------------0-----------------0--------------------------

tabs and chords, guitar tabs, music transcription, music technology, deep learning, music information retrieval, transcribe into tabs & chords, chordify, music renditions, songsterr, reverbnation, tabulature, bollywood chords, ultimate guitar, yousician, guitar lessons, acoustic guitar, electric guitar, guitar tuner, 911 tabs