Guitar Tabs for Nobela

(/) Slide Up  (\) Slide Down  (h) Hammer On  (p) Pull Off  (b) Bend (r) Release (v) Vibrato (x) Muted

Tabs for Song : 
BPM : 162
capo at 3rd fret
Song lyrics here 
E|-----------------------------------------------------------------------------------------3-----0-----------0--
B|-----------1------------------1h3-----0-----------------------1---------------1h3-----1--------------3--------
G|-----0--------0-----------------------------0-----------0--------0--------------------------------------------
D|--------------------------------------------------------------------------------------------------------------
A|-----------3--------3-----------------------------------------3--------3--------------------------------------
E|--------------------------------------0--------------------------------------------------0--------------------

E|------------------------------------------------------------------------1h3-----0--------------------------
B|-----------0--1------1h3--1--0-----------------------------0--1--0--1--------------0--1--3--0-----1---1h3--
G|-----2--2--------------------------0--0-----0--2-----2-----------------------------------------------------
D|-----------------------------------------2-----------------------------------------------------------------
A|--------------------------------3--------3-----------------------------------------3--------3--------------
E|-----1--------------------------------------------------1--------1-----------------------------------------

E|--------------------------------------------------------------------------------------------------------
B|-----------0--1------1h3--1--0-----------------------------0--1--0--1-----------0--1--3--0-----1---1h3--
G|-----2--2--------------------------0--0-----0--2--------2--------------------0--------------------------
D|-----------------------------------------2--------------------------------2-----------------------------
A|--------------------------------3--------3--------------------------------------------------------------
E|-----1--------1-----------------------------------------1--------1--------------3--------3--------------

E|------------------------------------------------------------------------1h3-----0--------------------------
B|-----------0--1------1h3--1--0-----------------------------0--1--0--1--------------0--1--3--0-----1---1h3--
G|-----2--2--------------------------0--0-----0--2-----2-----------------------------------------------------
D|-----------------------------------------2-----------------------------------------------------------------
A|--------------------------------3--------3-----------------------------------------3--------3--------------
E|-----1--------1-----------------------------------------1--------1-----------------------------------------

E|-----------------------------------------------------------0--1--0--1--------------------------------0--
B|-----------0--1------1h3--1--0--------------------------3-----------------1---1h3--------3-----1--3-----
G|-----2--2--------------------------0--0-----0--2--------------------------------------0-----0-----------
D|-----------------------------------------2--------------0--------0--------------------------------------
A|--------------------------------3--------3--------------------------------------------------------------
E|-----1--------1--------------------------------------------------------------------3--------------------

E|-----------------0--------------------------------------------------------------------0--
B|--3--------1--3-----3--------1---1h3-----1--0---------------0h1-----0-----------1--3-----
G|-----2-----------------0--------------------------2--------------------------2-----------
D|-----------------------------------------------------------------------------------------
A|--------------------------------------------3-----------------------0--------------------
E|--1-----1-----------3-----3--------------------------------------------------------------

E|-----------------0--------------------3-----0--------------------------------0--
B|--3--------1--3-----3--------0--1--3-----------------3-----1-----------1--3-----
G|-----2-----------------0-----------------------------------------2--------------
D|--------------------------------------------------------------------------------
A|-----------------------------------------------------------0--------0-----------
E|--1-----1-----------3-----3-----------0-----0-----------------------------------

E|-----------3--0--0-----------------------------------------------------------------------------------
B|--3-----------------3-----3-----------1---1h3-----1--0-----------------------0--1--3--0-----1---1h3--
G|-----2--------------------1-----1--------------------------0-----------------------------------------
D|-----------------------------------------------------------------------------------------------------
A|-----------------------------------------------------------------------------------------------------
E|--1-----1-----------------1--------1-----------------1-----------------------3--------3--------------

E|--
B|--
G|--
D|--
A|--
E|--





Song lyrics here 
E|--
B|--
G|--
D|--
A|--
E|--

Use manual mode to free up cursor. Paste any tab in acousterr tab maker and we'll play it !!!



tabs and chords, guitar tabs, music transcription, music technology, deep learning, music information retrieval, transcribe into tabs & chords, chordify, music renditions, songsterr, reverbnation, tabulature, bollywood chords, ultimate guitar, yousician, guitar lessons, acoustic guitar, electric guitar, guitar tuner, 911 tabs