Guitar Tabs for Nobela - Join The Club (lead)

(/) Slide Up  (\) Slide Down  (h) Hammer On  (p) Pull Off  (b) Bend (r) Release (v) Vibrato (x) Muted

Tabs for Song : 
BPM : 162

INTRO:
E|--------------------
B|--------------------
G|---3/8--10p8--7-----
D|-----------------8--
A|--------------------
E|--------------------


E|-----------------------------
B|--------------11\8---6/8-----
G|---3/8--10p8--------------8--
D|-----------------------------
A|-----------------------------
E|-----------------------------

Verse:13x
E|-----------------------
B|--------6-----------6--
G|---7h8-----7--7--8-----
D|-----------------------
A|-----------------------
E|-----------------------

Verse Outro:
E|-----------------------
B|---6/8--9--8--9--------
G|------------------8/10-
D|-----------------------
A|-----------------------
E|-----------------------

Chorus:
E|--------------------------------
B|--11\8--8--8---8p6--6--6--------
G|--------------------------8--8--
D|--------------------------------
A|--------------------------------
E|--------------------------------

E|--------------------------------
B|--11\8--8--8---8p6--6--6--------
G|--------------------------8--8--
D|--------------------------------
A|--------------------------------
E|--------------------------------

E|--------------------------
B|--------------------------
G|--10-8--7--5---7/8--7--5--
D|--------------------------
A|--------------------------
E|--------------------------

E|--------------------------------
B|--11\8--8--8---8p6--6--6--------
G|--------------------------8--8--
D|--------------------------------
A|--------------------------------
E|--------------------------------

E|--------------------------------------------------
B|--11\8--8--8---8p6--6--6--------------11\8--6-----
G|--------------------------8--8--10-12----------8--
D|--------------------------------------------------
A|--------------------------------------------------
E|--------------------------------------------------

E|--------------------------------
B|--11\8--8--8---8p6--6--6--------
G|--------------------------8--8--
D|--------------------------------
A|--------------------------------
E|--------------------------------

E|-----------------------------------------------
B|--11\8--8--8---8p6--6--6-----------------13-15-
G|--------------------------8--8--10-12-15-------
D|-----------------------------------------------
A|-----------------------------------------------
E|-----------------------------------------------

(Repeat Verse & Chorus)

Solo:
E|-----------------------------------------------------------
B|--------------------9--6-----------------------------------
G|--6--8---8/10-8--6--------8---8/10-8-----10-10-10/11-10----
D|--------------------------------------8-----------------8--
A|-----------------------------------------------------------
E|-----------------------------------------------------------

E|--------------------------------------------------------
B|--------------------9--6--------------------------------
G|--6--8---8/10-8--6--------8---8/10-8-----10-10/11-10----
D|--------------------------------------8--------------8--
A|--------------------------------------------------------
E|--------------------------------------------------------

E|-----------------------------------------------------------
B|-----------------------------------------------------9-----
G|--6--8--6---8/10----10-11-10-8--6--5--6-----10-10-11----10-
D|-----------------------------------------------------------
A|-----------------------------------------------------------
E|-----------------------------------------------------------

E|-----------------
B|--------------14-
G|--10-11-11/13----
D|-----------------
A|-----------------
E|-----------------

E|--------------------------------------------------------
B|--7--9--7-----------------------------------------------
G|------------6/8--6--5--6---8/10-8--8--6--8---5/6--5-----
D|-----------------------------------------------------6--
A|--------------------------------------------------------
E|--------------------------------------------------------

DON"T PLAY ANYTHING WITH VERSE

(Repeat Chorus)


Use manual mode to free up cursor. Paste any tab in acousterr tab maker and we'll play it !!!
tabs and chords, guitar tabs, music transcription, music technology, deep learning, music information retrieval, transcribe into tabs & chords, chordify, music renditions, songsterr, reverbnation, tabulature, bollywood chords, ultimate guitar, yousician, guitar lessons, acoustic guitar, electric guitar, guitar tuner, 911 tabs