Guitar Tabs for Nobela

(/) Slide Up  (\) Slide Down  (h) Hammer On  (p) Pull Off  (b) Bend (r) Release (v) Vibrato (x) Muted

Tabs for Song : 
BPM : 200

Intro 
E|--------------------------------------------------------------------------
B|------0h1-----1---------1h3--------1--------0-----------------------------
G|--0--------------------------------------------2--0-----------0--------0--
D|-----------2--------2-----------2--------2-----------0-----0--------0-----
A|------3h---------3-----------3--------3-----2-----------2--------2--------
E|--------------------------------------------------------------------------

E|-----------------------------------------3-----0--------0--
B|---0h1-----1---------1h3--------1--------------------3-----
G|--------------------------------------------0--------------
D|--------2--------2-----------2--------2--------------------
A|---3h---------3-----------3--------3-----2--------2--------
E|-----------------------------------------------------------
   
   Verse 1

E|--------------------------------------------------------------------3--0--------------------
B|--------0--1---1h3--1--0-----------------------------0--1--0--1--------------1--3--0--1--3--
G|-----2-----------------------0--0-----0--2-----0--2--------------------------0-----0-----0--
D|-----------------------------------2--------------------------------------------------------
A|-----------2--------------3--------3--------3-----------------------------3--------3-----3--
E|--3--------3--------3-----------------------------3--------3-----3--------------------------

E|--------------------------------------------------------------------------------------------
B|--------0--1---1h3--1--0-----------------------------0--1--0--1-----------------------0-----
G|-----2-----2-----------------0--0-----0--2-----0--2--------------------------------0--------
D|-----------------------------------2--------------------------------3---3/5-----5--------5--
A|--------------------------3--------3--------3-----------------------------------------------
E|--3--------3--------3-----------------------------3--------3-----3-----------5--------------

E|-----------------------------------------------------------------3--0--------------------
B|--------0--1---1h3--1--0--------------------------0--1--0--1--------------1--3--0--1--3--
G|-----2-----2-----------------0--0-----0--2--0--2--------------------------0-----0-----0--
D|-----------------------------------2-----------------------------------------------------
A|--------------------------3--------3-----------------------------------3--------3--------
E|--3--------3-----------------------------------3--------3-----3--------------------------

E|-----------------------------------------------------0--1--0--1--------------------------
B|--------0--1---1h3--1--0--------------------------3-----0-----------1---1\3--------3-----
G|-----2-----2-----------------0--0-----0--2-----0------------------------2\4-----------4--
D|-----------------------------------2--------------------------------------------5--------
A|--------------------------3--------3--------------1-----------1--1-----------------------
E|--3--------3-----------------------------------------------------------------5-----------
  
  Chorus
  
E|-----------0--------------------------------------------------------x--------------------x-----------x--------
B|--------------3--3--------1--3------3/5--3--3-----------------3--0--x------------0h1--0--x-----1--3--x---3/5--
G|--5---5/7-----2--2-----2-----------------4--4--------4--5--------0--x--2--------------2--x--2--------x--------
D|--------------------------------------------------5-----------------x--0-----0-----------x--2--------x--------
A|--------------------------------------------------------------------x-----------------0--x--0--------x--------
E|--5-----------3-----3--------------------5-----5-----------------2--x--2--2--------------x-----------x--------

E|--------------------x--------------------------x-----3--x--0-----------------------------x--------
B|--3--3--------1--3--x---3/5--3--3--------------x--3--0--x--0--------3--1--1--------1--3--x---3/5--
G|--2--2-----2--------x--------4--4--------4--5--x--------x--0-----0-----2--2-----2--------x--------
D|--------------------x-----------------5--------x--------x--------------------------------x--------
A|--------------------x--------------------------x--------x--------------------0-----------x--------
E|--3-----3-----------x--------5-----5-----------x-----2--x--2--2--------0-----------------x--------

E|--------------3--0--0--x--------------x-----------x--------------------------------------------------------------
B|--3--3-----------------x-----3--3--3--x-----1--3--x--1-----------------------------------------------------------
G|--2--2-----2-----------x--------------x-----------x------3\5-----5--------5--------5-----------5-----------------
D|-----------------------x--------------x-----------x-----------5--------5--------5--------5-----------------5-----
A|-----------------------x--------------x-----------x--------------------------------------------------------------
E|--3-----3-----3--------x--3--------3--x--3--------x------3\5--------5--------5--------5-----5-----5--5--5-----5--

Use manual mode to free up cursor. Paste any tab in acousterr tab maker and we'll play it !!!
tabs and chords, guitar tabs, music transcription, music technology, deep learning, music information retrieval, transcribe into tabs & chords, chordify, music renditions, songsterr, reverbnation, tabulature, bollywood chords, ultimate guitar, yousician, guitar lessons, acoustic guitar, electric guitar, guitar tuner, 911 tabs