Guitar Tabs for Newe

(/) Slide Up  (\) Slide Down  (h) Hammer On  (p) Pull Off  (b) Bend (r) Release (v) Vibrato (x) Muted

Tabs & Chords
BPM : 133.0
Check Track 2 for Chord Positions 

    G                                                              D                          
E|--------------------------------------------3-----------------------------------------------
B|--------------------------------1--2--1--------------0--1--0-----------3--------------------
G|--0-----0-----0--------1--0-----------------------2--------------2-----------------2-----0--
D|-----------------2--------------------------------------------------------------------------
A|-----------------------------------------------------------------------------0--------------
E|--------------------------------------------------------------------------------------------

             G        C           G                       C           G              C     G  
E|--------------------------------------------------3-----------3--------2--------------------
B|--------------------3-----------------------3-----------3--------------------------3--------
G|-----------1--0-----------0-----0-----------------------------------0-----------------------
D|-----2--------------------------------------------------------------------------------------
A|-----------------------------------------------------------------------------------------0--
E|--------------------------------------3--------------------------------------3--------------

                      
E|--------------------
B|--------------------
G|-----------------0--
D|-----------2--------
A|-----2--------------
E|--------------------

Guitar Tabs for Newe






    G                                                              D                          
E|--3--------------------------------------------------------------2--------------------------
B|--3--------------------------------------------------------------3--------------------------
G|--4--------------------------------------------------------------2--------------------------
D|--5--------------------------------------------------------------0--------------------------
A|--5-----------------------------------------------------------------------------------------
E|--3-----------------------------------------------------------------------------------------

             G        C           G                       C           G              C     G  
E|-----------3--------0-----------3-----------------------0-----------3--------------0-----3--
B|-----------3--------1-----------3-----------------------1-----------3--------------1-----3--
G|-----------4--------0-----------4-----------------------0-----------4--------------0-----4--
D|-----------5--------2-----------5-----------------------2-----------5--------------2-----5--
A|-----------5--------3-----------5-----------------------3-----------5--------------3-----5--
E|-----------3--------------------3-----------------------------------3--------------------3--

                      
E|--------------------
B|--------------------
G|--------------------
D|--------------------
A|--------------------
E|--------------------

tabs and chords, guitar tabs, music transcription, music technology, deep learning, music information retrieval, transcribe into tabs & chords, chordify, music renditions, songsterr, reverbnation, tabulature, bollywood chords, ultimate guitar, yousician, guitar lessons, acoustic guitar, electric guitar, guitar tuner, 911 tabs