Bass Tabs for My Defense

(/) Slide Up  (\) Slide Down  (h) Hammer On  (p) Pull Off  (b) Bend (r) Release (v) Vibrato (x) Muted

Tabs for Song : My Defense 
[Default Arrangement] by Andi Rozier, Jason Ingram, Jonathan Smith, and Mia Fieldes 

VERSE 1
You make a way when I cannot see You are my strength though my heart is weak You won't let go
G|--------------------------------------------------------------------------------------------
D|-----------------------------------------------------------------------0--------------------
A|--------------------------------------------------------------------------------------------
E|--5--------------------------2-----------------------------------------------------------0--

VERSE 2
You take my place on this battlefield You go before You're my sword my shield I'm not alone
G|--------------------------------------------------------------------------------------------
D|-----------------------------------------------------------------------0--------------------
A|--------------------------------------------------------------------------------------------
E|--5--------------------------2-----------------------------------------------------------0--

CHORUS
You fight for me, You always have you always have My victory is in your hands, in your hands
The God of Heaven is my defense
G|-----------------------------------------------------------------------------------------
D|-----------------------------------------------------------------------------------------
A|-----------------------------------------------------------------------------------------
E|--5--------------------------------------------------2-----------------------------------

G|-----------------------------
D|--0--------------------------
A|--------------------------0--
E|-----------------------------

VERSE 3

Chorus (2X)

BRIDGE
I will not fear Though armies will rise I will not fear For you are on my side (REPEAT)
G|-----------------------------------------------------------------------------
D|--0--------------0--------------------0-----------------0--------------------
A|-----------------------------------------------------------------------------
E|-----------2--0-----------------2--0--------------2--0--------------2-----0--

CHORUS

Tag
The God of Heaven is my defense
G|-----------------------------
D|--0--------------------------
A|--------------0--------------
E|-----------------------------

Paste any tab in acousterr's tab maker and we'll play it !!!
Now supports capo and sound effects for vibrato/pull-off/hammer/bends/mutes etc !!! Checkout help section
tabs and chords, guitar tabs, music transcription, music technology, deep learning, music information retrieval, transcribe into tabs & chords, chordify, music renditions, songsterr, reverbnation, tabulature, bollywood chords, ultimate guitar, yousician, guitar lessons, acoustic guitar, electric guitar, guitar tuner, 911 tabs