Bass Tabs for Call Upon The Lord

(/) Slide Up  (\) Slide Down  (h) Hammer On  (p) Pull Off  (b) Bend (r) Release (v) Vibrato (x) Muted

Tabs for Song : Call Upon The Lord [Bb]
[Default Arrangement] by Christopher Brown and Steven Furtick

I,V!,C,V2,C,C,In,T,IN,C,C,E

Intro: Drums in Hold
G|--------------------
D|--------------------
A|--------------------
E|--6v----------------
VERSE 1
We need no other hiding place Our hope is safe within your name This we know, This we know
You promised never to forsake What you began you will sustain This we know, This we know
G|-----------------------------------------------------------------------------------------
D|-----------------------------5-----------------------------------------------------------
A|-----------------------------------------------------------------------6-----------------
E|--6--------------------------------------------------------------------------------------

G|-----------------------------------------------------------------------------------------
D|-----------------------------5-----------------------------------------------------------
A|-----------------------------------------------------------------------6-----------------
E|--6--------------------------------------------------------------------------------------

CHORUS
I will call upon the Lord For he alone is strong enough to save 
Rise your shackles are no more For Jesus Christ has broken every chain
G|--------------------------------------------------------------
D|-----------------1-----------------------------------------1--
A|--1--------------------------------------------------1--------
E|-----------1--------------------3-----------------------------

G|--------------------------------------------------------------
D|-----------------1-----------------------------------------1--
A|--1--------------------------------------------------1--------
E|-----------1--------------------3-----------------------------

VERSE 2
All of the heavens and the earth Announce the fullness of your worth This we know , This we know
And every enemy will flee As we declare your victory This we know , This we know
G|-----------------------------------------------------------------------------------------
D|-----------------------------5-----------------------------------------------------------
A|-----------------------------------------------------------------------6-----------------
E|--6--------------------------------------------------------------------------------------

G|-----------------------------------------------------------------------------------------
D|-----------------------------5-----------------------------------------------------------
A|-----------------------------------------------------------------------6-----------------
E|--6--------------------------------------------------------------------------------------

CHORUS (2X)
I will call upon the Lord For he alone is strong enough to save 
Rise your shackles are no more For Jesus Christ has broken every chain
G|--------------------------------------------------------------
D|-----------------1-----------------------------------------1--
A|--1--------------------------------------------------1--------
E|-----------1--------------------3-----------------------------

G|--------------------------------------------------------------
D|-----------------1-----------------------------------------1--
A|--1--------------------------------------------------1--------
E|-----------1--------------------3-----------------------------

Instrumental:
G|-----------------
D|--5--------------
A|--------6--------
E|--------------6--

BRIDGE 2x Building 2nd time
Jesus Name will break every stronghold Freedom is ours when we call His name 
Jesus name above every other All hail the power of Jesus name
G|--------------------------------------------------------------------------
D|--------------------1-----------------0-----------1-----------3--------3--
A|--------------------------------1-----------------------------------------
E|--3-----------------------------------------------------------------------

G|--------------------------------------------------------------------------
D|--------------------1-----------------0-----------1-----------3--------3--
A|--------------------------------1-----------------------------------------
E|--3-----------------------------------------------------------------------

Tag
All hail the power of Jesus name
G|--------------------------------
D|--0-----------1--------3-----3--
A|--------------------------------
E|--------------------------------

Instrumental: 2X
G|-----------------
D|--5--------------
A|--------6--------
E|--------------6--

CHORUS (2X)
I will call upon the Lord For he alone is strong enough to save 
Rise your shackles are no more For Jesus Christ has broken every chain
G|--------------------------------------------------------------
D|-----------------1-----------------------------------------1--
A|--1--------------------------------------------------1--------
E|-----------1--------------------3-----------------------------

G|--------------------------------------------------------------
D|-----------------1-----------------------------------------1--
A|--1--------------------------------------------------1--------
E|-----------1--------------------3-----------------------------


Ending
Hold till end
G|-----------
D|--------1--
A|--1--------
E|-----1-----

G|-----------------
D|--------1--------
A|-----1--------1v-
E|--3--------------










Paste any tab in acousterr's tab maker and we'll play it !!!
Now supports capo and sound effects for vibrato/pull-off/hammer/bends/mutes etc !!! Checkout help section
tabs and chords, guitar tabs, music transcription, music technology, deep learning, music information retrieval, transcribe into tabs & chords, chordify, music renditions, songsterr, reverbnation, tabulature, bollywood chords, ultimate guitar, yousician, guitar lessons, acoustic guitar, electric guitar, guitar tuner, 911 tabs