Guitar Tabs for Muskurane ki wajah

Tabs for Song : Muakurane Ki Wajah

4 times
E|--2-----------2-----------
B|-----3--2--3-----2--3-----
G|-----------------------2--
D|--------------------------
A|--------------------------
E|--------------------------

muskurane 
E|--------------------------
B|--0-----2--3--2--2-----0--
G|--------------------------
D|--------------------------
A|--------------------------
E|--------------------------

ki wajah tum ho
E|--------------2--0-----------------------------
B|--0--2--3--0-----------3--2--2--0--2--0--------
G|-----------------------------------------2-----
D|-----------------------------------------------
A|-----------------------------------------------
E|-----------------------------------------------

gungunane 
E|-----------------------
B|-----0--2--0--0--------
G|--2--------------2-----
D|-----------------------
A|-----------------------
E|-----------------------
 
ki wajah tum ho
E|-----------------------0-----------------
B|-----0--2--0--------------3--0-----------
G|--2-----------2--2--------------2--0-----
D|-----------------------------------------
A|-----------------------------------------
E|-----------------------------------------

jiya jaye na jaye na jaye na 
E|--------------------------------------
B|--0--------0--2-----0--2-----0--2-----
G|-----3--3--------3--------3-----------
D|--------------------------------------
A|--------------------------------------
E|--------------------------------------

o re piya re
E|--------------------
B|--------2--0--0-----
G|--3--3--------------
D|--------------------
A|--------------------
E|--------------------

o re lamhe
E|--------------------------
B|--0-----2--3--2--2-----0--
G|--------------------------
D|--------------------------
A|--------------------------
E|--------------------------

tu kahi mat jaa
E|--------------2--0-----------------------------
B|--0--2--3--0-----------3--2--2--0--2--0--------
G|-----------------------------------------2-----
D|-----------------------------------------------
A|-----------------------------------------------
E|-----------------------------------------------

ho ske to
E|-----------------------
B|-----0--2--0--0--------
G|--2--------------2-----
D|-----------------------
A|-----------------------
E|-----------------------

umra bhar tham jaa
E|-----------------------0-----------------
B|-----0--2--0--------------3--0-----------
G|--2-----------2--2--------------2--0-----
D|-----------------------------------------
A|-----------------------------------------
E|-----------------------------------------

jiya jaye na jaye na jaye na
E|--------------------------------------
B|--0--------0--2-----0--2-----0--2-----
G|-----3--3--------3--------3-----------
D|--------------------------------------
A|--------------------------------------
E|--------------------------------------

o re piya re
E|--------------------
B|--------2--0--0-----
G|--3--3--------------
D|--------------------
A|--------------------
E|--------------------

jiya jaye na jaye na jaye na
E|--------------------------------------
B|--0--------0--2-----0--2-----0--2-----
G|-----3--3--------3--------3-----------
D|--------------------------------------
A|--------------------------------------
E|--------------------------------------

o re piya re,piya re
E|--2--0--0--3--2--------------0--------------------
B|-----------------3--2--2--------3-----2--0--0-----
G|--------------------------------------------------
D|--------------------------------------------------
A|--------------------------------------------------
E|--------------------------------------------------

dhoop aaye toh..
E|--2--0--3--2--------------2--0--3-----
B|--------------3--2--3-----------------
G|--------------------------------------
D|--------------------------------------
A|--------------------------------------
E|--------------------------------------

chhaaon tum laana..
E|--2--0--3--2--------------
B|--------------3--2--3-----
G|--------------------------
D|--------------------------
A|--------------------------
E|--------------------------

khawaisho ki barisho mein
E|--------2--0--0-----------2--0--0--------
B|-----2-----------------2-----------3-----
G|--2-----------------2--------------------
D|-----------------------------------------
A|-----------------------------------------
E|-----------------------------------------

bheeg sang jaana
E|-----2--0-----------------------
B|--3--------3--2--0--2--2--3-----
G|--------------------------------
D|--------------------------------
A|--------------------------------
E|--------------------------------

jiya jaye na jaye na jaye na
E|--------------------------------------
B|--0--------0--2-----0--2-----0--2-----
G|-----3--3--------3--------3-----------
D|--------------------------------------
A|--------------------------------------
E|--------------------------------------

o re piya re
E|--------------------
B|--------2--0--0-----
G|--3--3--------------
D|--------------------
A|--------------------
E|--------------------
tabs and chords, guitar tabs, music contests, music covers, songsterr, reverbnation, renditions, tabulature, bollywood chords, ultimate guitar, yousician, guitar lessons, torrins, fender, gibson, acoustic guitar, electric guitar, youtube covers, gootar, guitar tuner, A-Z tabs, 911 tabs