Guitar Tabs for Do Lafzo Ki Hai Dil Ki Kahani Tabs

(/) Slide Up  (\) Slide Down  (h) Hammer On  (p) Pull Off  (b) Bend (r) Release (v) Vibrato

Tabs for Song : do Lafzo ki Hai

Do lafzo ki hai dil ki kahani
E|-----------------------------------------
B|--------------3--------3-----------1-----
G|-----------2--------2-----2--0--0--------
D|--0--2--3--------------------------------
A|-----------------------------------------
E|-----------------------------------------

ya hai mohhabat, ya hai jawaani
E|-----------------------------------------------
B|-----1-----------------------------------------
G|--0-----0--------3--------3--------------------
D|-----------3--3--------3-----3--2--3--2--0-----
A|-----------------------------------------------
E|-----------------------------------------------

la la laa la la lala la
E|--------------------------------------
B|--------------------------------------
G|-----------0--------------------------
D|--0--2--3--------2--2--2--4--2--4-----
A|--------------------------------------
E|--------------------------------------

ye kasti wala
E|-----------------------------
B|--1--------1---1h3-----------
G|-----3--2-----------3--2-----
D|-----------------------------
A|-----------------------------
E|-----------------------------

kya gaa raha tha
E|-----------------------------
B|--1--------1---1h3-----------
G|-----3--2-----------3--2-----
D|-----------------------------
A|-----------------------------
E|-----------------------------

koi ise bhi yaad aa raha hai
E|--0--------0-----0-----0--------------------
B|-----3--------------------3-----3-----3-----
G|--------2--------------------2--------------
D|--------------------------------------------
A|--------------------------------------------
E|--------------------------------------------



Add more lines by placing cursor below and adding notes
tabs and chords, guitar tabs, music contests, music covers, songsterr, reverbnation, renditions, tabulature, bollywood chords, ultimate guitar, yousician, guitar lessons, torrins, fender, gibson, acoustic guitar, electric guitar, youtube covers, gootar, guitar tuner, A-Z tabs, 911 tabs