Guitar Tabs for Mushkurane Ki Wajah

Intro
E|--2-----------2-----------2-----------2-----------2-----------2-----------2-----------2-----------
B|-----3--2--3-----2--3--------3--2--3-----2--3--------3--2--3-----2--3--------3--2--3-----2--3-----
G|-----------------------2-----------------------2-----------------------2-----------------------2--
D|--------------------------------------------------------------------------------------------------
A|--------------------------------------------------------------------------------------------------
E|--------------------------------------------------------------------------------------------------

Mushkurane ki...
E|--------------------------------------------------2-----------------------------
B|--------2---3p2---2h-3p2--------------2---3p2--------5-----3---2h-3p2-----------
G|---2/4--------------------4------2/4-----------4-----------------------4--2-----
D|--------------------------------------------------------------------------------
A|--------------------------------------------------------------------------------
E|--------------------------------------------------------------------------------

Gungunane ki...
E|--------------------------------------------------------------------------------
B|-----------2-----------------------2--------5--3-----2--------------------------
G|--2-----4-----4--4--2-----2-----4-----4--2-----------------4--2---2h-4p2--------
D|--------------------------------------------------------------------------5-----
A|--------------------------------------------------------------------------------
E|--------------------------------------------------------------------------------

jiya jaye na...
E|--------------------------------------------------------------
B|--------------------------------------------------------------
G|---6\3--3--4--6--3--4--6--3--4---4/6-----3--3---4/6--4--4-----
D|--------------------------------------------------------------
A|--------------------------------------------------------------
E|--------------------------------------------------------------

jiya jaye na...
E|-----------------------------------------2------3p2-----------------------------------------
B|--------------------------------------------5--------3------2h-3p2---3/5------2h-3p2--------
G|---6\3--3--4--6--3--4--6--3--4---4/6--------------------------------------------------4--4--
D|--------------------------------------------------------------------------------------------
A|--------------------------------------------------------------------------------------------
E|--------------------------------------------------------------------------------------------


dhoop aaye toh...
E|--------------------------------------------------------------------------
B|------5/7--5--7---5\3---3\2-----3---5/7------5/7--5--7---5\3---3\2--2-----
G|--------------------------------------------------------------------------
D|--------------------------------------------------------------------------
A|--------------------------------------------------------------------------
E|--------------------------------------------------------------------------

baarison ki
E|-----------------------------------------------2-----------------------
B|-----2--5--5-----5--------2--5--5-----5-----5-----5---3p2-----2---2/3--
G|--2--------------------2-----------------------------------4-----------
D|-----------------------------------------------------------------------
A|-----------------------------------------------------------------------
E|-----------------------------------------------------------------------


jiya jaye na...
E|--------------------------------------------------------------
B|--------------------------------------------------------------
G|---6\3--3--4--6--3--4--6--3--4---4/6-----3--3---4/6--4--4-----
D|--------------------------------------------------------------
A|--------------------------------------------------------------
E|--------------------------------------------------------------
tabs and chords, guitar tabs, music transcription, music technology, deep learning, music information retrieval, transcribe into tabs & chords, chordify, music renditions, songsterr, reverbnation, tabulature, bollywood chords, ultimate guitar, yousician, guitar lessons, acoustic guitar, electric guitar, guitar tuner, 911 tabs