Guitar Tabs for Do Lafzo Ki He Dil Ki Kahani

(/) Slide Up  (\) Slide Down  (h) Hammer On  (p) Pull Off  (b) Bend (r) Release (v) Vibrato (x) Muted

Tabs for Song : 

    do lafzo      ki     he  dil     ki    kahani   ya he mohobbat   ya    he   ja  wa  niiiii   
E|-----------------10-------10-------------8--------8--------------6--6--------6-----------------------
B|-----------10----------10----10-8--8-----------8-----8--6--6--------------6-----6--5--6--5--3--5--3--
G|--7--9--10-------------------------------------------------------------------------------------------
D|-----------------------------------------------------------------------------------------------------
A|-----------------------------------------------------------------------------------------------------
E|-----------------------------------------------------------------------------------------------------
     wo     kashti   wala    kya     ga    ra ha   tha     koi use  bhi   yaad aa raha tha
E|--8--------8--------------8--------8--------------12-10----12----12-------12-10----10----10-
B|-----11-10-------11-10-------11-10-------11-10----------10----------------------10----------
G|--------------------------------------------------------------------------------------------
D|--------------------------------------------------------------------------------------------
A|--------------------------------------------------------------------------------------------
E|--------------------------------------------------------------------------------------------
      lal laa laa  laaalla  laa laa laa laala 
E|--------------------------------------
B|--------------8--10-11----11-11-11-10-
G|-----7--9--10-------------------------
D|--------------------------------------
A|--------------------------------------
E|--------------------------------------

Song lyrics here
E|--
B|--
G|--
D|--
A|--
E|--

Paste any tab in acousterr's tab maker and we'll play it !!!
Now supports capo and sound effects for vibrato/pull-off/hammer/bends/mutes etc !!! Checkout help section
tabs and chords, guitar tabs, music transcription, music technology, deep learning, music information retrieval, transcribe into tabs & chords, chordify, music renditions, songsterr, reverbnation, tabulature, bollywood chords, ultimate guitar, yousician, guitar lessons, acoustic guitar, electric guitar, guitar tuner, 911 tabs