Guitar Tabs for Mungkin Nanti

(/) Slide Up  (\) Slide Down  (h) Hammer On  (p) Pull Off  (b) Bend (r) Release (v) Vibrato (x) Muted

Tabs & Chords
BPM : 117.0
Check Track 2 for Chord Positions 

    E     A     A                                      C#m                  D                 
E|--------------------------------------------------------------------------------------------
B|-----------------2-----------0-----------0--0-----------------------------------------------
G|-----------------------1--2-----2--2--2--------------1--------------------------------------
D|--------------------------------------------------4-----4-----2--2--1-----1--4--2-----2--4--
A|--------------0-----------------------------------------------------------------------------
E|--0-----3-----------------------------------------------------------------------------------

             A                                                                 C#m            
E|--------------------------------------------0-----------------------------------------------
B|-----------------------------------------2--------------------------0-----0--2--------------
G|--1--1--2--------------------------------------------2--1--3--2--------2--------0-----------
D|-----------0--0--------------------------------------------------------------------4-----2--
A|--------------------4-----3--4-----0--------------0-----------------------------------------
E|--------------------------------------------------------------------------------------------

                   
E|-----------------
B|-----------------
G|-----------------
D|-----2--1--------
A|-----------------
E|--------------4--

Guitar Tabs for Mungkin Nanti






    E     A     A                                      C#m                  D                 
E|--0-----0-----0--------------------------------------4--------------------2-----------------
B|--0-----2-----2--------------------------------------5--------------------3-----------------
G|--1-----2-----2--------------------------------------6--------------------2-----------------
D|--2-----2-----2--------------------------------------6--------------------0-----------------
A|--2-----0-----0--------------------------------------4--------------------------------------
E|--0-----------------------------------------------------------------------------------------

             A                                                                 C#m            
E|-----------0-----------------------------------------------------------------4--------------
B|-----------2-----------------------------------------------------------------5--------------
G|-----------2-----------------------------------------------------------------6--------------
D|-----------2-----------------------------------------------------------------6--------------
A|-----------0-----------------------------------------------------------------4--------------
E|--------------------------------------------------------------------------------------------

                   
E|-----------------
B|-----------------
G|-----------------
D|-----------------
A|-----------------
E|-----------------

tabs and chords, guitar tabs, music transcription, music technology, deep learning, music information retrieval, transcribe into tabs & chords, chordify, music renditions, songsterr, reverbnation, tabulature, bollywood chords, ultimate guitar, yousician, guitar lessons, acoustic guitar, electric guitar, guitar tuner, 911 tabs