Guitar Tabs for Moora Intro - Gangs Of Wasseypur

(/) Slide Up  (\) Slide Down  (h) Hammer On  (p) Pull Off  (b) Bend (r) Release (v) Vibrato (x) Muted

Tabs forMoora Intro Tune - Gangs of Wasseypur

    G chord shape
E|-----------------------------3-----------------------------------------------
B|--------3-----3-----3-----5--------------3-----3-----3-----------------------
G|-----4-----------4-----5--------------4-----------4-----5--5--5-----5--2-----
D|--5--------------------------------5--------------------------------------5--
A|-----------------------------------------------------------------------------
E|-----------------------------------------------------------------------------

Song lyrics here
E|-----------------------------------------------------------------------------
B|-----------------------------------------------------------------------------
G|--5--5--5--5--4--2-----5-----5--5--5--5--4--2-----------2--2-----4---4\-2\0--
D|--------------------5--------------------------5--5--5--------5--------------
A|-----------------------------------------------------------------------------
E|-----------------------------------------------------------------------------

tabs and chords, guitar tabs, music transcription, music technology, deep learning, music information retrieval, transcribe into tabs & chords, chordify, music renditions, songsterr, reverbnation, tabulature, bollywood chords, ultimate guitar, yousician, guitar lessons, acoustic guitar, electric guitar, guitar tuner, 911 tabs