Guitar Tabs for Gangs Of Wasseypur Soundtrack

(/) Slide Up  (\) Slide Down  (h) Hammer On  (p) Pull Off  (b) Bend (r) Release (v) Vibrato (x) Muted

Tabs for Gangs of Wasseypur Soundtrack

Song lyrics here
E|-----------------------------------------------------------------------
B|--------9--------9-----------9--------9--------------------------------
G|--10----------10----10-9-----------9-----9--------9-----9--8-----------
D|--------------------------------------------11----------------11-10----
A|-----------------------------------------------------------------------
E|-----------------------------------------------------------------------

E|-----------------------------------------------------------------------
B|--------9--------9-----------9--------9--------------------------------
G|--10----------10----10-9-----------9-----9--------9-----9--8-----------
D|--------------------------------------------11----------------11-10----
A|-----------------------------------------------------------------------
E|-----------------------------------------------------------------------


E|--------13----------11----------9-----9--8-----
B|--12-13-------11-12-------11-12----------------
G|-----------------------------------------------
D|-----------------------------------------------
A|-----------------------------------------------
E|-----------------------------------------------



Paste any tab in acousterr's tab maker and we'll play it !!!
Now supports capo and sound effects for vibrato/pull-off/hammer/bends/mutes etc !!! Checkout help section


tabs and chords, guitar tabs, music transcription, music technology, deep learning, music information retrieval, transcribe into tabs & chords, chordify, music renditions, songsterr, reverbnation, tabulature, bollywood chords, ultimate guitar, yousician, guitar lessons, acoustic guitar, electric guitar, guitar tuner, 911 tabs