Guitar Tabs for Mera Dil Bhi Kitna Pagal Hai

Kitna is ko samajhata hoon
E|-----------------------------------13-13\11-11h13p11-11----
B|---7/9--9---9/13-13-13-13/14----14-------------------------
G|-----------------------------------------------------------
D|-----------------------------------------------------------
A|-----------------------------------------------------------
E|-----------------------------------------------------------

Kitna is ko behlata hoon
E|-----------------------------------13-13\11-11h13p11-11----
B|---7/9--9---9/13-13-13-13/14----14-------------------------
G|-----------------------------------------------------------
D|-----------------------------------------------------------
A|-----------------------------------------------------------
E|-----------------------------------------------------------

Naadaan hai
E|--11-11----11-13-11-9--9---9h11p9--8--8-----
B|--------------------------------------------
G|--------------------------------------------
D|--------------------------------------------
A|--------------------------------------------
E|--------------------------------------------

kuch na samajhata hai
E|--9--9--11-9--8---8h-9p8-----------
B|--------------------------11-11----
G|-----------------------------------
D|-----------------------------------
A|-----------------------------------
E|-----------------------------------

Din raat ye aahen bharta hai
E|--------------------------------------------------
B|---9/11-11-11-11/14-13\11----11/13----11\9--9-----
G|--------------------------------------------------
D|--------------------------------------------------
A|--------------------------------------------------
E|--------------------------------------------------

Mera dil bhi kitna pagal hai
E|--------------------------------------------------
B|-----------------------9--8---8\6--8-----6--6--6--
G|--5--6---6/8--8--8--------------------------------
D|--------------------------------------------------
A|--------------------------------------------------
E|--------------------------------------------------

Yeh pyar to tum se karta hai
E|-----------------------------------------------------------
B|-----------------------------------------------------------
G|--6--5---5\3-----3--3--3--5---6/10----10\8-----10\8--8-----
D|-----------------------------------------------------------
A|-----------------------------------------------------------
E|-----------------------------------------------------------

Par saamne jab tum aate ho
E|--8--8---6h8--8--8-----6--8---8p6-----6---6h-8p6-----------
B|---------------------------------------------------9\6-----
G|-----------------------------------------------------------
D|-----------------------------------------------------------
A|-----------------------------------------------------------
E|-----------------------------------------------------------

Kuch bhi kehne se darta hai
E|-----------------------------------------------------
B|--2--2------2/6--6--6---6/11--9\6---6/8--------------
G|--------------------------------------------8--8-----
D|-----------------------------------------------------
A|-----------------------------------------------------
E|-----------------------------------------------------

O mere saajan! o mere saajan
E|-----------------------------------------------------------
B|---6/9---8\6-----6-----6------6/11-------------------------
G|--------------------------------------10-12----12/13-13----
D|-----------------------------------------------------------
A|-----------------------------------------------------------
E|-----------------------------------------------------------

Saajan saajan, mere saajan
E|-----------------------------------------------------------
B|---6/9---8\6------6/8--6------6/11-------------------------
G|--------------------------------------10-12----12/13-13----
D|-----------------------------------------------------------
A|-----------------------------------------------------------
E|-----------------------------------------------------------
tabs and chords, guitar tabs, music transcription, music technology, deep learning, music information retrieval, transcribe into tabs & chords, chordify, music renditions, songsterr, reverbnation, tabulature, bollywood chords, ultimate guitar, yousician, guitar lessons, acoustic guitar, electric guitar, guitar tuner, 911 tabs