Guitar Tabs for Hai Dil Ye Mera - Hate Story 2 Tabs

(/) Slide Up  (\) Slide Down  (h) Hammer On  (p) Pull Off  (b) Bend (r) Release (v) Vibrato (x) Muted

Tabs for Song : Hai Dil Ye Mera

Hai dil ye mera Mujhe hardum ye poochta
E|-----10-8--7--------------12-10-10----10----------
B|--------------10-10-12-13----------12----12-10----
G|--9--------------------------------------------12-
D|--------------------------------------------------
A|--------------------------------------------------
E|--------------------------------------------------

Kyun hai mujhe tujhse itni wafaa
E|--------10----------------------------
B|-----------13-12-13-10----------10-10-
G|--12-12----------------10-10-10-------
D|--------------------------------------
A|--------------------------------------
E|--------------------------------------

Kyun teri hasrat Hai har khwahish se badhkar mujhe
E|-----10-8--7--------------12-10-10-10----10----------
B|--------------10-10-12-13-------------12----12-10----
G|--9-----------------------------------------------12-
D|-----------------------------------------------------
A|-----------------------------------------------------
E|-----------------------------------------------------

Kyun naam tera hi leti zubaan
E|--------10----------------------------
B|-----------13-12-13-10----------10-10-
G|--12-12----------------10-10-10-------
D|--------------------------------------
A|--------------------------------------
E|--------------------------------------

Saathi tera bann jaaun Kyun hai yeh junoon
E|--13-12-12-13-12-12-13-12-12-12-12-17-16-17-12-10-------10----------
B|--------------------------------------------------13-12----12-10----
G|-----------------------------------------------------------------12-
D|--------------------------------------------------------------------
A|--------------------------------------------------------------------
E|--------------------------------------------------------------------

Har aansun tera pee jaaun Or de du sukoon
E|--12-10-10-12-10-10-12-10-10-10----10----10-12-------------10-12-
B|--------------------------------12----13-------12-10-12-13-------
G|-----------------------------------------------------------------
D|-----------------------------------------------------------------
A|-----------------------------------------------------------------
E|-----------------------------------------------------------------

Har din tujhko chaahun Teri raah takun
E|--13-12-12-13-12-12-13-12-12-12-12-17-16-17-12-10-------10----------
B|--------------------------------------------------13-12----12-10----
G|-----------------------------------------------------------------12-
D|--------------------------------------------------------------------
A|--------------------------------------------------------------------
E|--------------------------------------------------------------------

Har aansun tera pee jaaun Or de du sukoon
E|--12-10-10-12-10-10-12-10-10-10----10----10-12-------
B|--------------------------------12----13-------12-10-
G|-----------------------------------------------------
D|-----------------------------------------------------
A|-----------------------------------------------------
E|-----------------------------------------------------
tabs and chords, guitar tabs, music transcription, music technology, deep learning, music information retrieval, transcribe into tabs & chords, chordify, music renditions, songsterr, reverbnation, tabulature, bollywood chords, ultimate guitar, yousician, guitar lessons, acoustic guitar, electric guitar, guitar tuner, 911 tabs