Guitar Tabs for Dil To Pagal Hai Arey Re Arey - Single String

(/) Slide Up  (\) Slide Down  (h) Hammer On  (p) Pull Off  (b) Bend (r) Release (v) Vibrato

Tabs for Song : 
Arey re arey ye kya hua
Song lyrics here
E|--0--2--3--0--7--5--3--2--
B|--------------------------
G|--------------------------
D|--------------------------
A|--------------------------
E|--------------------------

maine ne ye na jana
E|--0--2--3--0--8--7--
B|--------------------
G|--------------------
D|--------------------
A|--------------------
E|--------------------

arey re arey ban jaye na

E|--0--2--3--0--7--5--3--2--
B|--------------------------
G|--------------------------
D|--------------------------
A|--------------------------
E|--------------------------

kahin koi afsana
E|--3--5--7--2--3--2--0--
B|-----------------------
G|-----------------------
D|-----------------------
A|-----------------------
E|-----------------------

Now supports capo and sound effects for vibrato/pull-off/hammer/bends etc !!! Checkout help section
tabs and chords, guitar tabs, music contests, music covers, songsterr, reverbnation, renditions, tabulature, bollywood chords, ultimate guitar, yousician, guitar lessons, torrins, fender, gibson, acoustic guitar, electric guitar, youtube covers, gootar, guitar tuner, A-Z tabs, 911 tabs